  0
SECTION
  2
HEADER
  9
$ACADVER
  1
AC1021
  9
$ACADMAINTVER
 70
     1
  9
$DWGCODEPAGE
  3
ANSI_1250
  9
$LASTSAVEDBY
  1
Mac
  9
$INSBASE
 10
0.0
 20
0.0
 30
0.0
  9
$EXTMIN
 10
912.6616623561387
 20
97.95185613369318
 30
0.0
  9
$EXTMAX
 10
1197.894896273352
 20
256.2266202435081
 30
0.0
  9
$LIMMIN
 10
0.0
 20
0.0
  9
$LIMMAX
 10
420.0
 20
297.0
  9
$ORTHOMODE
 70
     0
  9
$REGENMODE
 70
     1
  9
$FILLMODE
 70
     1
  9
$QTEXTMODE
 70
     0
  9
$MIRRTEXT
 70
     0
  9
$LTSCALE
 40
1.0
  9
$ATTMODE
 70
     1
  9
$TEXTSIZE
 40
2.5
  9
$TRACEWID
 40
1.0
  9
$TEXTSTYLE
  7
Standard
  9
$CLAYER
  8
0
  9
$CELTYPE
  6
ByLayer
  9
$CECOLOR
 62
   256
  9
$CELTSCALE
 40
1.0
  9
$DISPSILH
 70
     0
  9
$DIMSCALE
 40
1.0
  9
$DIMASZ
 40
2.5
  9
$DIMEXO
 40
0.625
  9
$DIMDLI
 40
3.75
  9
$DIMRND
 40
0.0
  9
$DIMDLE
 40
0.0
  9
$DIMEXE
 40
1.25
  9
$DIMTP
 40
0.0
  9
$DIMTM
 40
0.0
  9
$DIMTXT
 40
2.5
  9
$DIMCEN
 40
2.5
  9
$DIMTSZ
 40
0.0
  9
$DIMTOL
 70
     0
  9
$DIMLIM
 70
     0
  9
$DIMTIH
 70
     0
  9
$DIMTOH
 70
     0
  9
$DIMSE1
 70
     0
  9
$DIMSE2
 70
     0
  9
$DIMTAD
 70
     1
  9
$DIMZIN
 70
     8
  9
$DIMBLK
  1

  9
$DIMASO
 70
     1
  9
$DIMSHO
 70
     1
  9
$DIMPOST
  1

  9
$DIMAPOST
  1

  9
$DIMALT
 70
     0
  9
$DIMALTD
 70
     3
  9
$DIMALTF
 40
0.03937007874016
  9
$DIMLFAC
 40
1.0
  9
$DIMTOFL
 70
     1
  9
$DIMTVP
 40
0.0
  9
$DIMTIX
 70
     0
  9
$DIMSOXD
 70
     0
  9
$DIMSAH
 70
     0
  9
$DIMBLK1
  1

  9
$DIMBLK2
  1

  9
$DIMSTYLE
  2
ISO-25
  9
$DIMCLRD
 70
     0
  9
$DIMCLRE
 70
     0
  9
$DIMCLRT
 70
     0
  9
$DIMTFAC
 40
1.0
  9
$DIMGAP
 40
0.625
  9
$DIMJUST
 70
     0
  9
$DIMSD1
 70
     0
  9
$DIMSD2
 70
     0
  9
$DIMTOLJ
 70
     0
  9
$DIMTZIN
 70
     8
  9
$DIMALTZ
 70
     0
  9
$DIMALTTZ
 70
     0
  9
$DIMUPT
 70
     0
  9
$DIMDEC
 70
     2
  9
$DIMTDEC
 70
     2
  9
$DIMALTU
 70
     2
  9
$DIMALTTD
 70
     3
  9
$DIMTXSTY
  7
Standard
  9
$DIMAUNIT
 70
     0
  9
$DIMADEC
 70
     0
  9
$DIMALTRND
 40
0.0
  9
$DIMAZIN
 70
     0
  9
$DIMDSEP
 70
    44
  9
$DIMATFIT
 70
     3
  9
$DIMFRAC
 70
     0
  9
$DIMLDRBLK
  1

  9
$DIMLUNIT
 70
     2
  9
$DIMLWD
 70
    -2
  9
$DIMLWE
 70
    -2
  9
$DIMTMOVE
 70
     0
  9
$DIMFXL
 40
1.0
  9
$DIMFXLON
 70
     0
  9
$DIMJOGANG
 40
0.7853981633974483
  9
$DIMTFILL
 70
     0
  9
$DIMTFILLCLR
 70
     0
  9
$DIMARCSYM
 70
     0
  9
$DIMLTYPE
  6

  9
$DIMLTEX1
  6

  9
$DIMLTEX2
  6

  9
$LUNITS
 70
     2
  9
$LUPREC
 70
     4
  9
$SKETCHINC
 40
1.0
  9
$FILLETRAD
 40
2.0
  9
$AUNITS
 70
     0
  9
$AUPREC
 70
     0
  9
$MENU
  1
.
  9
$ELEVATION
 40
0.0
  9
$PELEVATION
 40
0.0
  9
$THICKNESS
 40
0.0
  9
$LIMCHECK
 70
     0
  9
$CHAMFERA
 40
0.0
  9
$CHAMFERB
 40
0.0
  9
$CHAMFERC
 40
0.0
  9
$CHAMFERD
 40
0.0
  9
$SKPOLY
 70
     0
  9
$TDCREATE
 40
2456029.634352188
  9
$TDUCREATE
 40
2456029.551018854
  9
$TDUPDATE
 40
2456055.638626458
  9
$TDUUPDATE
 40
2456055.555293125
  9
$TDINDWG
 40
0.2202150347
  9
$TDUSRTIMER
 40
0.2202139583
  9
$USRTIMER
 70
     1
  9
$ANGBASE
 50
0.0
  9
$ANGDIR
 70
     0
  9
$PDMODE
 70
     0
  9
$PDSIZE
 40
0.0
  9
$PLINEWID
 40
0.0
  9
$SPLFRAME
 70
     0
  9
$SPLINETYPE
 70
     6
  9
$SPLINESEGS
 70
     8
  9
$HANDSEED
  5
8BA
  9
$SURFTAB1
 70
     6
  9
$SURFTAB2
 70
     6
  9
$SURFTYPE
 70
     6
  9
$SURFU
 70
     6
  9
$SURFV
 70
     6
  9
$UCSBASE
  2

  9
$UCSNAME
  2

  9
$UCSORG
 10
0.0
 20
0.0
 30
0.0
  9
$UCSXDIR
 10
1.0
 20
0.0
 30
0.0
  9
$UCSYDIR
 10
0.0
 20
1.0
 30
0.0
  9
$UCSORTHOREF
  2

  9
$UCSORTHOVIEW
 70
     0
  9
$UCSORGTOP
 10
0.0
 20
0.0
 30
0.0
  9
$UCSORGBOTTOM
 10
0.0
 20
0.0
 30
0.0
  9
$UCSORGLEFT
 10
0.0
 20
0.0
 30
0.0
  9
$UCSORGRIGHT
 10
0.0
 20
0.0
 30
0.0
  9
$UCSORGFRONT
 10
0.0
 20
0.0
 30
0.0
  9
$UCSORGBACK
 10
0.0
 20
0.0
 30
0.0
  9
$PUCSBASE
  2

  9
$PUCSNAME
  2

  9
$PUCSORG
 10
0.0
 20
0.0
 30
0.0
  9
$PUCSXDIR
 10
1.0
 20
0.0
 30
0.0
  9
$PUCSYDIR
 10
0.0
 20
1.0
 30
0.0
  9
$PUCSORTHOREF
  2

  9
$PUCSORTHOVIEW
 70
     0
  9
$PUCSORGTOP
 10
0.0
 20
0.0
 30
0.0
  9
$PUCSORGBOTTOM
 10
0.0
 20
0.0
 30
0.0
  9
$PUCSORGLEFT
 10
0.0
 20
0.0
 30
0.0
  9
$PUCSORGRIGHT
 10
0.0
 20
0.0
 30
0.0
  9
$PUCSORGFRONT
 10
0.0
 20
0.0
 30
0.0
  9
$PUCSORGBACK
 10
0.0
 20
0.0
 30
0.0
  9
$USERI1
 70
     0
  9
$USERI2
 70
     0
  9
$USERI3
 70
     0
  9
$USERI4
 70
     0
  9
$USERI5
 70
     0
  9
$USERR1
 40
0.0
  9
$USERR2
 40
0.0
  9
$USERR3
 40
0.0
  9
$USERR4
 40
0.0
  9
$USERR5
 40
0.0
  9
$WORLDVIEW
 70
     1
  9
$SHADEDGE
 70
     3
  9
$SHADEDIF
 70
    70
  9
$TILEMODE
 70
     1
  9
$MAXACTVP
 70
    64
  9
$PINSBASE
 10
0.0
 20
0.0
 30
0.0
  9
$PLIMCHECK
 70
     0
  9
$PEXTMIN
 10
0.0
 20
0.0
 30
0.0
  9
$PEXTMAX
 10
0.0
 20
0.0
 30
0.0
  9
$PLIMMIN
 10
0.0
 20
0.0
  9
$PLIMMAX
 10
12.0
 20
9.0
  9
$UNITMODE
 70
     0
  9
$VISRETAIN
 70
     1
  9
$PLINEGEN
 70
     0
  9
$PSLTSCALE
 70
     1
  9
$TREEDEPTH
 70
  3020
  9
$CMLSTYLE
  2
Standard
  9
$CMLJUST
 70
     0
  9
$CMLSCALE
 40
20.0
  9
$PROXYGRAPHICS
 70
     1
  9
$MEASUREMENT
 70
     1
  9
$CELWEIGHT
370
    -1
  9
$ENDCAPS
280
     0
  9
$JOINSTYLE
280
     0
  9
$LWDISPLAY
290
     0
  9
$INSUNITS
 70
     4
  9
$HYPERLINKBASE
  1

  9
$STYLESHEET
  1

  9
$XEDIT
290
     1
  9
$CEPSNTYPE
380
     0
  9
$PSTYLEMODE
290
     1
  9
$FINGERPRINTGUID
  2
{B071651E-9989-467C-9F95-F914F88EA5D6}
  9
$VERSIONGUID
  2
{E0E061D6-2876-46CE-8FF9-CFB8F73262B7}
  9
$EXTNAMES
290
     1
  9
$PSVPSCALE
 40
0.0
  9
$OLESTARTUP
290
     0
  9
$SORTENTS
280
   127
  9
$INDEXCTL
280
     0
  9
$HIDETEXT
280
     1
  9
$XCLIPFRAME
290
     0
  9
$HALOGAP
280
     0
  9
$OBSCOLOR
 70
   257
  9
$OBSLTYPE
280
     0
  9
$INTERSECTIONDISPLAY
280
     0
  9
$INTERSECTIONCOLOR
 70
   257
  9
$DIMASSOC
280
     2
  9
$PROJECTNAME
  1

  9
$CAMERADISPLAY
290
     0
  9
$LENSLENGTH
 40
50.0
  9
$CAMERAHEIGHT
 40
0.0
  9
$STEPSPERSEC
 40
2.0
  9
$STEPSIZE
 40
6.0
  9
$3DDWFPREC
 40
2.0
  9
$PSOLWIDTH
 40
5.0
  9
$PSOLHEIGHT
 40
80.0
  9
$LOFTANG1
 40
1.570796326794896
  9
$LOFTANG2
 40
1.570796326794896
  9
$LOFTMAG1
 40
0.0
  9
$LOFTMAG2
 40
0.0
  9
$LOFTPARAM
 70
     7
  9
$LOFTNORMALS
280
     1
  9
$LATITUDE
 40
37.795
  9
$LONGITUDE
 40
-122.394
  9
$NORTHDIRECTION
 40
0.0
  9
$TIMEZONE
 70
 -8000
  9
$LIGHTGLYPHDISPLAY
280
     1
  9
$TILEMODELIGHTSYNCH
280
     1
  9
$CMATERIAL
347
EC
  9
$SOLIDHIST
280
     1
  9
$SHOWHIST
280
     1
  9
$DWFFRAME
280
     2
  9
$DGNFRAME
280
     0
  9
$REALWORLDSCALE
290
     1
  9
$INTERFERECOLOR
 62
     1
  9
$INTERFEREOBJVS
345
F9
  9
$INTERFEREVPVS
346
F6
  9
$CSHADOW
280
     0
  9
$SHADOWPLANELOCATION
 40
0.0
  0
ENDSEC
  0
SECTION
  2
CLASSES
  0
CLASS
  1
ACDBDICTIONARYWDFLT
  2
AcDbDictionaryWithDefault
  3
ObjectDBX Classes
 90
        0
 91
        1
280
     0
281
     0
  0
CLASS
  1
DICTIONARYVAR
  2
AcDbDictionaryVar
  3
ObjectDBX Classes
 90
        0
 91
        3
280
     0
281
     0
  0
CLASS
  1
TABLESTYLE
  2
AcDbTableStyle
  3
ObjectDBX Classes
 90
     4095
 91
        1
280
     0
281
     0
  0
CLASS
  1
MATERIAL
  2
AcDbMaterial
  3
ObjectDBX Classes
 90
     1024
 91
        3
280
     0
281
     0
  0
CLASS
  1
VISUALSTYLE
  2
AcDbVisualStyle
  3
ObjectDBX Classes
 90
     4095
 91
       16
280
     0
281
     0
  0
CLASS
  1
DIMASSOC
  2
AcDbDimAssoc
  3
"AcDbDimAssoc|Product Desc:     AcDim ARX App For Dimension|Company:          Autodesk, Inc.|WEB Address:      www.autodesk.com"
 90
        0
 91
        0
280
     0
281
     0
  0
CLASS
  1
SORTENTSTABLE
  2
AcDbSortentsTable
  3
ObjectDBX Classes
 90
        0
 91
        1
280
     0
281
     0
  0
ENDSEC
  0
SECTION
  2
TABLES
  0
TABLE
  2
VPORT
  5
8
330
0
100
AcDbSymbolTable
 70
     1
  0
VPORT
  5
EA
330
8
100
AcDbSymbolTableRecord
100
AcDbViewportTableRecord
  2
*Active
 70
     0
 10
0.0
 20
0.0
 11
1.0
 21
1.0
 12
1059.150438568076
 22
168.2220613223126
 13
0.0
 23
0.0
 14
10.0
 24
10.0
 15
10.0
 25
10.0
 16
0.0
 26
0.0
 36
1.0
 17
0.0
 27
0.0
 37
0.0
 40
243.336040013166
 41
1.332496863237139
 42
50.0
 43
0.0
 44
0.0
 50
0.0
 51
0.0
 71
     0
 72
  1000
 73
     1
 74
     3
 75
     0
 76
     0
 77
     0
 78
     0
281
     0
 65
     1
110
0.0
120
0.0
130
0.0
111
1.0
121
0.0
131
0.0
112
0.0
122
1.0
132
0.0
 79
     0
146
0.0
348
F5
 60
     2
 61
     5
292
     1
282
     1
141
0.0
142
0.0
 63
   250
421
  3355443
  0
ENDTAB
  0
TABLE
  2
LTYPE
  5
5
330
0
100
AcDbSymbolTable
 70
     1
  0
LTYPE
  5
14
330
5
100
AcDbSymbolTableRecord
100
AcDbLinetypeTableRecord
  2
ByBlock
 70
     0
  3

 72
    65
 73
     0
 40
0.0
  0
LTYPE
  5
15
330
5
100
AcDbSymbolTableRecord
100
AcDbLinetypeTableRecord
  2
ByLayer
 70
     0
  3

 72
    65
 73
     0
 40
0.0
  0
LTYPE
  5
16
330
5
100
AcDbSymbolTableRecord
100
AcDbLinetypeTableRecord
  2
Continuous
 70
     0
  3
Solid line
 72
    65
 73
     0
 40
0.0
  0
ENDTAB
  0
TABLE
  2
LAYER
  5
2
330
0
100
AcDbSymbolTable
 70
     2
  0
LAYER
  5
10
330
2
100
AcDbSymbolTableRecord
100
AcDbLayerTableRecord
  2
0
 70
     0
 62
     7
  6
Continuous
370
    -3
390
F
347
EE
  0
LAYER
  5
11C
330
2
100
AcDbSymbolTableRecord
100
AcDbLayerTableRecord
  2
Defpoints
 70
     0
 62
     7
  6
Continuous
290
     0
370
    -3
390
F
347
EE
  0
ENDTAB
  0
TABLE
  2
STYLE
  5
3
330
0
100
AcDbSymbolTable
 70
     1
  0
STYLE
  5
11
330
3
100
AcDbSymbolTableRecord
100
AcDbTextStyleTableRecord
  2
Standard
 70
     0
 40
0.0
 41
1.0
 50
0.0
 71
     0
 42
2.5
  3
txt
  4

  0
ENDTAB
  0
TABLE
  2
VIEW
  5
6
330
0
100
AcDbSymbolTable
 70
     0
  0
ENDTAB
  0
TABLE
  2
UCS
  5
7
330
0
100
AcDbSymbolTable
 70
     0
  0
ENDTAB
  0
TABLE
  2
APPID
  5
9
330
0
100
AcDbSymbolTable
 70
     3
  0
APPID
  5
12
330
9
100
AcDbSymbolTableRecord
100
AcDbRegAppTableRecord
  2
ACAD
 70
     0
  0
APPID
  5
9E
330
9
100
AcDbSymbolTableRecord
100
AcDbRegAppTableRecord
  2
ACAD_PSEXT
 70
     0
  0
APPID
  5
1BB
330
9
100
AcDbSymbolTableRecord
100
AcDbRegAppTableRecord
  2
ACAD_EXEMPT_FROM_CAD_STANDARDS
 70
     0
  0
ENDTAB
  0
TABLE
  2
DIMSTYLE
  5
A
330
0
100
AcDbSymbolTable
 70
     1
100
AcDbDimStyleTable
 71
     1
340
27
  0
DIMSTYLE
105
27
330
A
100
AcDbSymbolTableRecord
100
AcDbDimStyleTableRecord
  2
ISO-25
 70
     0
 41
2.5
 42
0.625
 43
3.75
 44
1.25
 73
     0
 74
     0
 77
     1
 78
     8
140
2.5
141
2.5
143
0.03937007874016
147
0.625
171
     3
172
     1
271
     2
272
     2
274
     3
278
    44
283
     0
284
     8
340
11
  0
ENDTAB
  0
TABLE
  2
BLOCK_RECORD
  5
1
330
0
100
AcDbSymbolTable
 70
     1
  0
BLOCK_RECORD
  5
1F
102
{ACAD_XDICTIONARY
360
145
102
}
330
1
100
AcDbSymbolTableRecord
100
AcDbBlockTableRecord
  2
*Model_Space
340
22
 70
     0
280
     1
281
     0
  0
BLOCK_RECORD
  5
D2
330
1
100
AcDbSymbolTableRecord
100
AcDbBlockTableRecord
  2
*Paper_Space
340
D3
 70
     0
280
     1
281
     0
  0
BLOCK_RECORD
  5
D6
330
1
100
AcDbSymbolTableRecord
100
AcDbBlockTableRecord
  2
*Paper_Space0
340
D7
 70
     0
280
     1
281
     0
  0
ENDTAB
  0
ENDSEC
  0
SECTION
  2
BLOCKS
  0
BLOCK
  5
20
330
1F
100
AcDbEntity
  8
0
100
AcDbBlockBegin
  2
*Model_Space
 70
     0
 10
0.0
 20
0.0
 30
0.0
  3
*Model_Space
  1

  0
ENDBLK
  5
21
330
1F
100
AcDbEntity
  8
0
100
AcDbBlockEnd
  0
BLOCK
  5
D4
330
D2
100
AcDbEntity
 67
     1
  8
0
100
AcDbBlockBegin
  2
*Paper_Space
 70
     0
 10
0.0
 20
0.0
 30
0.0
  3
*Paper_Space
  1

  0
ENDBLK
  5
D5
330
D2
100
AcDbEntity
 67
     1
  8
0
100
AcDbBlockEnd
  0
BLOCK
  5
D8
330
D6
100
AcDbEntity
 67
     1
  8
0
100
AcDbBlockBegin
  2
*Paper_Space0
 70
     0
 10
0.0
 20
0.0
 30
0.0
  3
*Paper_Space0
  1

  0
ENDBLK
  5
D9
330
D6
100
AcDbEntity
 67
     1
  8
0
100
AcDbBlockEnd
  0
ENDSEC
  0
SECTION
  2
ENTITIES
  0
LWPOLYLINE
  5
2BA
330
1F
100
AcDbEntity
  8
0
100
AcDbPolyline
 90
        6
 70
     0
 43
0.0
 10
1195.394896273352
 20
201.8532787463239
 10
1196.894896273352
 20
201.8532787463239
 42
0.4142135623730964
 10
1197.894896273352
 20
202.8532787463239
 10
1197.894896273352
 20
227.592762660566
 42
0.4142135623730951
 10
1196.894896273352
 20
228.592762660566
 10
1195.394896273352
 20
228.592762660566
  0
LWPOLYLINE
  5
2BB
330
1F
100
AcDbEntity
  8
0
100
AcDbPolyline
 90
        4
 70
     0
 43
0.0
 10
1125.394896273352
 20
201.853278746324
 10
1125.394896273352
 20
182.7230207034452
 42
0.4142135623730951
 10
1127.394896273352
 20
180.7230207034452
 10
1146.525154316231
 20
180.7230207034452
  0
LWPOLYLINE
  5
2C1
330
1F
100
AcDbEntity
  8
0
100
AcDbPolyline
 90
        4
 70
     0
 43
0.0
 10
1173.264638230473
 20
180.7230207034452
 10
1192.394896273352
 20
180.7230207034452
 42
0.4142135623730951
 10
1194.394896273352
 20
182.7230207034452
 10
1194.394896273352
 20
201.8532787463239
  0
LWPOLYLINE
  5
2C2
330
1F
100
AcDbEntity
  8
0
100
AcDbPolyline
 90
        4
 70
     0
 43
0.0
 10
1194.394896273352
 20
228.592762660566
 10
1194.394896273352
 20
247.723020703445
 42
0.4142135623730956
 10
1192.394896273352
 20
249.723020703445
 10
1173.264638230473
 20
249.723020703445
  0
LWPOLYLINE
  5
2C3
330
1F
100
AcDbEntity
  8
0
100
AcDbPolyline
 90
        4
 70
     0
 43
0.0
 10
1146.525154316231
 20
249.7230207034448
 10
1127.394896273352
 20
249.7230207034448
 42
0.4142135623730946
 10
1125.394896273352
 20
247.7230207034448
 10
1125.394896273352
 20
228.5927626605661
  0
CIRCLE
  5
2C5
330
1F
100
AcDbEntity
  8
0
100
AcDbCircle
 10
1159.894896273352
 20
215.223020703445
 30
0.0
 40
4.212263409342151
  0
CIRCLE
  5
2C7
330
1F
100
AcDbEntity
  8
0
100
AcDbCircle
 10
1173.760546474981
 20
215.223020703445
 30
0.0
 40
4.228211229968065
  0
CIRCLE
  5
2C8
330
1F
100
AcDbEntity
  8
0
100
AcDbCircle
 10
1166.827721374167
 20
227.2310260180448
 30
0.0
 40
4.228211229968065
  0
CIRCLE
  5
2C9
330
1F
100
AcDbEntity
  8
0
100
AcDbCircle
 10
1152.962071172537
 20
227.2310260180448
 30
0.0
 40
4.228211229968064
  0
CIRCLE
  5
2CA
330
1F
100
AcDbEntity
  8
0
100
AcDbCircle
 10
1146.029246071723
 20
215.2230207034448
 30
0.0
 40
4.228211229968065
  0
CIRCLE
  5
2CB
330
1F
100
AcDbEntity
  8
0
100
AcDbCircle
 10
1152.962071172537
 20
203.215015388845
 30
0.0
 40
4.228211229968065
  0
CIRCLE
  5
2CC
330
1F
100
AcDbEntity
  8
0
100
AcDbCircle
 10
1166.827721374167
 20
203.2150153888454
 30
0.0
 40
4.228211229968065
  0
CIRCLE
  5
2CF
330
1F
100
AcDbEntity
  8
0
100
AcDbCircle
 10
1181.88630526704
 20
203.0618423705226
 30
0.0
 40
4.188961196771288
  0
CIRCLE
  5
2D5
330
1F
100
AcDbEntity
  8
0
100
AcDbCircle
 10
1185.020604293361
 20
215.6868358240256
 30
0.0
 40
4.188961196771288
  0
CIRCLE
  5
2D6
330
1F
100
AcDbEntity
  8
0
100
AcDbCircle
 10
1181.42249014646
 20
228.1875503905315
 30
0.0
 40
4.188961196771288
  0
CIRCLE
  5
2D7
330
1F
100
AcDbEntity
  8
0
100
AcDbCircle
 10
1172.056074606274
 20
237.2144296971335
 30
0.0
 40
4.188961196771288
  0
CIRCLE
  5
2D8
330
1F
100
AcDbEntity
  8
0
100
AcDbCircle
 10
1159.431081152771
 20
240.3487287234539
 30
0.0
 40
4.188961196771287
  0
CIRCLE
  5
2D9
330
1F
100
AcDbEntity
  8
0
100
AcDbCircle
 10
1146.930366586265
 20
236.7506145765527
 30
0.0
 40
4.188961196771288
  0
CIRCLE
  5
2DA
330
1F
100
AcDbEntity
  8
0
100
AcDbCircle
 10
1137.903487279663
 20
227.3841990363672
 30
0.0
 40
4.188961196771288
  0
CIRCLE
  5
2DB
330
1F
100
AcDbEntity
  8
0
100
AcDbCircle
 10
1134.769188253343
 20
214.7592055828644
 30
0.0
 40
4.188961196771288
  0
CIRCLE
  5
2DC
330
1F
100
AcDbEntity
  8
0
100
AcDbCircle
 10
1138.367302400244
 20
202.2584910163581
 30
0.0
 40
4.188961196771288
  0
CIRCLE
  5
2DD
330
1F
100
AcDbEntity
  8
0
100
AcDbCircle
 10
1147.73371794043
 20
193.2316117097565
 30
0.0
 40
4.188961196771288
  0
CIRCLE
  5
2DE
330
1F
100
AcDbEntity
  8
0
100
AcDbCircle
 10
1160.358711393932
 20
190.0973126834358
 30
0.0
 40
4.188961196771288
  0
CIRCLE
  5
2DF
330
1F
100
AcDbEntity
  8
0
100
AcDbCircle
 10
1172.859425960439
 20
193.6954268303369
 30
0.0
 40
4.188961196771288
  0
CIRCLE
  5
2E2
330
1F
100
AcDbEntity
  8
0
100
AcDbCircle
 10
1186.582455560373
 20
188.5354614164232
 30
0.0
 40
3.198488804577891
  0
CIRCLE
  5
2F1
330
1F
100
AcDbEntity
  8
0
100
AcDbCircle
 10
1186.582455560373
 20
241.9105799904663
 30
0.0
 40
3.198488804577891
  0
CIRCLE
  5
2F2
330
1F
100
AcDbEntity
  8
0
100
AcDbCircle
 10
1133.20733698633
 20
241.9105799904663
 30
0.0
 40
3.198488804577891
  0
CIRCLE
  5
2F3
330
1F
100
AcDbEntity
  8
0
100
AcDbCircle
 10
1133.20733698633
 20
188.5354614164233
 30
0.0
 40
3.198488804577891
  0
ARC
  5
4AC
330
1F
100
AcDbEntity
  8
0
100
AcDbCircle
 10
1025.695281598665
 20
239.6129944944052
 30
0.0
 40
5.562522004886417
100
AcDbArc
 50
95.53556821942873
 51
174.4644317805712
  0
ARC
  5
4AD
330
1F
100
AcDbEntity
  8
0
100
AcDbCircle
 10
1114.158700375081
 20
246.2652913669055
 30
0.0
 40
6.0
100
AcDbArc
 50
0.0
 51
94.58349428864144
  0
LWPOLYLINE
  5
4AE
330
1F
100
AcDbEntity
  8
0
100
AcDbPolyline
 90
        4
 70
     0
 43
0.0
 10
1120.158700375081
 20
231.8045651319287
 42
-0.4142135623730951
 10
1119.158700375081
 20
230.8045651319286
 10
1111.158700375081
 20
230.8045651319286
 42
0.4142135623730951
 10
1110.158700375081
 20
229.8045651319287
  0
LWPOLYLINE
  5
4AF
330
1F
100
AcDbEntity
  8
0
100
AcDbPolyline
 90
        4
 70
     0
 43
0.0
 10
1120.158700375081
 20
197.7265352672372
 42
0.4142135623730951
 10
1119.158700375081
 20
198.7265352672372
 10
1111.158700375081
 20
198.7265352672372
 42
-0.4142135623730951
 10
1110.158700375081
 20
199.7265352672372
  0
LINE
  5
4B0
330
1F
100
AcDbEntity
  8
0
100
AcDbLine
 10
1110.158700375081
 20
229.8045651319287
 30
0.0
 11
1110.158700375081
 21
199.7265352672372
 31
0.0
  0
ARC
  5
4B1
330
1F
100
AcDbEntity
  8
0
100
AcDbCircle
 10
1025.695281598665
 20
189.9181059047611
 30
0.0
 40
5.562522004886417
100
AcDbArc
 50
185.5355682194287
 51
264.4644317805713
  0
ARC
  5
4B2
330
1F
100
AcDbEntity
  8
0
100
AcDbCircle
 10
1114.158700375081
 20
183.2658090322604
 30
0.0
 40
6.0
100
AcDbArc
 50
265.4165057113315
 51
0.0
  0
LINE
  5
4B3
330
1F
100
AcDbEntity
  8
0
100
AcDbLine
 10
1120.158700375081
 20
197.7265352672372
 30
0.0
 11
1120.158700375081
 21
183.2658090322604
 31
0.0
  0
LINE
  5
4B4
330
1F
100
AcDbEntity
  8
0
100
AcDbLine
 10
1120.158700375081
 20
246.2652913669055
 30
0.0
 11
1120.158700375081
 21
231.8045651319287
 31
0.0
  0
LINE
  5
4B5
330
1F
100
AcDbEntity
  8
0
100
AcDbLine
 10
1020.158700375081
 20
189.3815246811775
 30
0.0
 11
1020.158700375081
 21
240.1495757179893
 31
0.0
  0
CIRCLE
  5
4BE
330
1F
100
AcDbEntity
  8
0
100
AcDbCircle
 10
1109.916538588273
 20
241.6476950369474
 30
0.0
 40
4.943704911190479
  0
CIRCLE
  5
4BF
330
1F
100
AcDbEntity
  8
0
100
AcDbCircle
 10
1109.916538588273
 20
187.8834053622185
 30
0.0
 40
4.943704911190479
  0
ARC
  5
5D7
330
1F
100
AcDbEntity
  8
0
100
AcDbCircle
 10
1113.013447413314
 20
114.4846095015943
 30
0.0
 40
5.562522004886417
100
AcDbArc
 50
275.5355682194287
 51
354.4644317805713
  0
ARC
  5
5D8
330
1F
100
AcDbEntity
  8
0
100
AcDbCircle
 10
1024.550028636898
 20
107.8323126290938
 30
0.0
 40
6.0
100
AcDbArc
 50
180.0
 51
274.5834942886546
  0
LWPOLYLINE
  5
5D9
330
1F
100
AcDbEntity
  8
0
100
AcDbPolyline
 90
        4
 70
     0
 43
0.0
 10
1018.550028636898
 20
122.2930388640706
 42
-0.4142135623730951
 10
1019.550028636898
 20
123.2930388640706
 10
1027.550028636898
 20
123.2930388640706
 42
0.4142135623730951
 10
1028.550028636898
 20
124.2930388640706
  0
LWPOLYLINE
  5
5DA
330
1F
100
AcDbEntity
  8
0
100
AcDbPolyline
 90
        4
 70
     0
 43
0.0
 10
1018.550028636898
 20
156.371068728762
 42
0.4142135623730951
 10
1019.550028636898
 20
155.371068728762
 10
1027.550028636898
 20
155.371068728762
 42
-0.4142135623730951
 10
1028.550028636898
 20
154.371068728762
  0
LINE
  5
5DB
330
1F
100
AcDbEntity
  8
0
100
AcDbLine
 10
1028.550028636898
 20
124.2930388640706
 30
0.0
 11
1028.550028636898
 21
154.371068728762
 31
0.0
  0
ARC
  5
5DC
330
1F
100
AcDbEntity
  8
0
100
AcDbCircle
 10
1113.013447413314
 20
164.1794980912381
 30
0.0
 40
5.562522004886417
100
AcDbArc
 50
5.535568219428725
 51
84.46443178057128
  0
ARC
  5
5DD
330
1F
100
AcDbEntity
  8
0
100
AcDbCircle
 10
1024.550028636898
 20
170.8317949637389
 30
0.0
 40
6.0
100
AcDbArc
 50
85.41650571134537
 51
180.0
  0
LINE
  5
5DE
330
1F
100
AcDbEntity
  8
0
100
AcDbLine
 10
1018.550028636898
 20
156.371068728762
 30
0.0
 11
1018.550028636898
 21
170.8317949637389
 31
0.0
  0
LINE
  5
5DF
330
1F
100
AcDbEntity
  8
0
100
AcDbLine
 10
1018.550028636898
 20
107.8323126290938
 30
0.0
 11
1018.550028636898
 21
122.2930388640706
 31
0.0
  0
ARC
  5
5E1
330
1F
100
AcDbEntity
  8
0
100
AcDbCircle
 10
1054.97137250941
 20
121.3815485468373
 30
0.0
 40
1.224333690279153
100
AcDbArc
 50
144.762832123008
 51
35.23716787699202
  0
ARC
  5
5E2
330
1F
100
AcDbEntity
  8
0
100
AcDbCircle
 10
1054.97137250941
 20
157.2825590459949
 30
0.0
 40
1.224333690279153
100
AcDbArc
 50
324.762832123008
 51
215.237167876992
  0
LINE
  5
5E3
330
1F
100
AcDbEntity
  8
0
100
AcDbLine
 10
1055.97137250941
 20
156.5761646907282
 30
0.0
 11
1055.97137250941
 21
122.087942902104
 31
0.0
  0
LINE
  5
5E4
330
1F
100
AcDbEntity
  8
0
100
AcDbLine
 10
1053.97137250941
 20
122.087942902104
 30
0.0
 11
1053.97137250941
 21
156.5761646907282
 31
0.0
  0
ARC
  5
5E5
330
1F
100
AcDbEntity
  8
0
100
AcDbCircle
 10
1041.260700573154
 20
121.381548546838
 30
0.0
 40
1.224333690279153
100
AcDbArc
 50
144.762832123008
 51
35.23716787699202
  0
ARC
  5
5E6
330
1F
100
AcDbEntity
  8
0
100
AcDbCircle
 10
1041.260700573154
 20
157.2825590459956
 30
0.0
 40
1.224333690279153
100
AcDbArc
 50
324.762832123008
 51
215.237167876992
  0
LINE
  5
5E7
330
1F
100
AcDbEntity
  8
0
100
AcDbLine
 10
1042.260700573154
 20
156.5761646907289
 30
0.0
 11
1042.260700573154
 21
122.0879429021046
 31
0.0
  0
LINE
  5
5E8
330
1F
100
AcDbEntity
  8
0
100
AcDbLine
 10
1040.260700573154
 20
122.0879429021046
 30
0.0
 11
1040.260700573154
 21
156.5761646907289
 31
0.0
  0
CIRCLE
  5
5E9
330
1F
100
AcDbEntity
  8
0
100
AcDbCircle
 10
1028.792190423706
 20
112.4499089590521
 30
0.0
 40
4.943704911190479
  0
CIRCLE
  5
5EA
330
1F
100
AcDbEntity
  8
0
100
AcDbCircle
 10
1028.792190423706
 20
166.214198633781
 30
0.0
 40
4.943704911190479
  0
LWPOLYLINE
  5
617
330
1F
100
AcDbEntity
  8
0
100
AcDbPolyline
 90
        2
 70
     0
 43
0.0
 10
1117.550028636898
 20
151.8320537964159
 42
0.4142135623730951
 10
1118.550028636899
 20
152.8320537964159
  0
LWPOLYLINE
  5
61C
330
1F
100
AcDbEntity
  8
0
100
AcDbPolyline
 90
        2
 70
     0
 43
0.0
 10
1106.568827198223
 20
151.8320537964159
 42
0.4142135623730951
 10
1105.568827198223
 20
150.8320537964159
  0
LWPOLYLINE
  5
61D
330
1F
100
AcDbEntity
  8
0
100
AcDbPolyline
 90
        2
 70
     0
 43
0.0
 10
1106.568827198223
 20
126.8320537964161
 42
-0.4142135623730951
 10
1105.568827198223
 20
127.8320537964161
  0
LWPOLYLINE
  5
61E
330
1F
100
AcDbEntity
  8
0
100
AcDbPolyline
 90
        2
 70
     0
 43
0.0
 10
1117.550028636898
 20
126.8320537964161
 42
-0.4142135623730951
 10
1118.550028636899
 20
125.8320537964161
  0
LINE
  5
61F
330
1F
100
AcDbEntity
  8
0
100
AcDbLine
 10
1118.550028636899
 20
113.9480282780106
 30
0.0
 11
1118.550028636899
 21
125.8320537964161
 31
0.0
  0
LINE
  5
620
330
1F
100
AcDbEntity
  8
0
100
AcDbLine
 10
1117.550028636898
 20
126.8320537964161
 30
0.0
 11
1106.568827198223
 21
126.8320537964161
 31
0.0
  0
LINE
  5
621
330
1F
100
AcDbEntity
  8
0
100
AcDbLine
 10
1105.568827198223
 20
127.8320537964161
 30
0.0
 11
1105.568827198223
 21
150.8320537964159
 31
0.0
  0
LINE
  5
622
330
1F
100
AcDbEntity
  8
0
100
AcDbLine
 10
1106.568827198223
 20
151.8320537964159
 30
0.0
 11
1117.550028636898
 21
151.8320537964159
 31
0.0
  0
LINE
  5
623
330
1F
100
AcDbEntity
  8
0
100
AcDbLine
 10
1118.550028636899
 20
152.8320537964159
 30
0.0
 11
1118.550028636899
 21
164.7160793148218
 31
0.0
  0
LINE
  5
63A
330
1F
100
AcDbEntity
  8
0
100
AcDbLine
 10
1050.614385232481
 20
199.5333634239093
 30
0.0
 11
1081.033241151288
 21
197.0947399456276
 31
0.0
  0
ARC
  5
63D
330
1F
100
AcDbEntity
  8
0
100
AcDbCircle
 10
1051.162139419532
 20
202.8591568400295
 30
0.0
 40
3.370598833462855
100
AcDbArc
 50
189.3525842179587
 51
260.6474157820647
  0
ARC
  5
63F
330
1F
100
AcDbEntity
  8
0
100
AcDbCircle
 10
1081.274577944035
 20
199.5575185041613
 30
0.0
 40
2.474575049560619
100
AcDbArc
 50
264.4032434850851
 51
5.596756514940788
  0
LINE
  5
640
330
1F
100
AcDbEntity
  8
0
100
AcDbLine
 10
1050.614385232481
 20
229.997736975257
 30
0.0
 11
1081.033241151288
 21
232.4363604535383
 31
0.0
  0
ARC
  5
641
330
1F
100
AcDbEntity
  8
0
100
AcDbCircle
 10
1051.162139419532
 20
226.6719435591369
 30
0.0
 40
3.370598833462855
100
AcDbArc
 50
99.35258421793525
 51
170.6474157820412
  0
ARC
  5
642
330
1F
100
AcDbEntity
  8
0
100
AcDbCircle
 10
1081.274577944035
 20
229.9735818950046
 30
0.0
 40
2.474575049560619
100
AcDbArc
 50
354.4032434850592
 51
95.59675651491494
  0
LINE
  5
643
330
1F
100
AcDbEntity
  8
0
100
AcDbLine
 10
1047.836346003412
 20
202.3114026529785
 30
0.0
 11
1047.836346003412
 21
227.219697746188
 31
0.0
  0
LINE
  5
645
330
1F
100
AcDbEntity
  8
0
100
AcDbLine
 10
1083.737356502569
 20
199.7988552969083
 30
0.0
 11
1083.737356502569
 21
229.7322451022573
 31
0.0
  0
LINE
  5
651
330
1F
100
AcDbEntity
  8
0
100
AcDbLine
 10
1195.394896273352
 20
228.592762660566
 30
0.0
 11
1194.394896273352
 21
228.592762660566
 31
0.0
  0
LINE
  5
652
330
1F
100
AcDbEntity
  8
0
100
AcDbLine
 10
1195.394896273352
 20
201.8532787463239
 30
0.0
 11
1194.394896273352
 21
201.8532787463239
 31
0.0
  0
LWPOLYLINE
  5
653
330
1F
100
AcDbEntity
  8
0
100
AcDbPolyline
 90
        6
 70
     0
 43
0.0
 10
1173.264638230473
 20
250.723020703445
 10
1173.264638230473
 20
252.2230207034453
 42
0.4142135623730964
 10
1172.264638230473
 20
253.2230207034452
 10
1147.525154316231
 20
253.223020703445
 42
0.4142135623730951
 10
1146.525154316231
 20
252.223020703445
 10
1146.525154316231
 20
250.7230207034452
  0
LINE
  5
654
330
1F
100
AcDbEntity
  8
0
100
AcDbLine
 10
1146.525154316231
 20
250.7230207034452
 30
0.0
 11
1146.525154316231
 21
249.7230207034453
 31
0.0
  0
LINE
  5
655
330
1F
100
AcDbEntity
  8
0
100
AcDbLine
 10
1173.264638230473
 20
250.723020703445
 30
0.0
 11
1173.264638230473
 21
249.723020703445
 31
0.0
  0
LWPOLYLINE
  5
656
330
1F
100
AcDbEntity
  8
0
100
AcDbPolyline
 90
        5
 70
     0
 43
0.0
 10
1125.394896273352
 20
228.5927626605661
 10
1125.394896273351
 20
228.5927626605661
 42
0.4142135623730964
 10
1124.394896273351
 20
227.5927626605661
 10
1124.394896273352
 20
202.853278746324
 42
0.4142135623730951
 10
1125.394896273352
 20
201.853278746324
  0
LWPOLYLINE
  5
659
330
1F
100
AcDbEntity
  8
0
100
AcDbPolyline
 90
        6
 70
     0
 43
0.0
 10
1146.525154316231
 20
179.7230207034452
 10
1146.525154316231
 20
178.2230207034448
 42
0.4142135623730964
 10
1147.525154316231
 20
177.2230207034448
 10
1172.264638230473
 20
177.2230207034452
 42
0.4142135623730951
 10
1173.264638230473
 20
178.2230207034452
 10
1173.264638230473
 20
179.7230207034448
  0
LINE
  5
65A
330
1F
100
AcDbEntity
  8
0
100
AcDbLine
 10
1173.264638230473
 20
179.7230207034448
 30
0.0
 11
1173.264638230473
 21
180.7230207034448
 31
0.0
  0
LINE
  5
65B
330
1F
100
AcDbEntity
  8
0
100
AcDbLine
 10
1146.525154316231
 20
179.7230207034452
 30
0.0
 11
1146.525154316231
 21
180.7230207034452
 31
0.0
  0
CIRCLE
  5
708
330
1F
100
AcDbEntity
  8
0
100
AcDbCircle
 10
1007.433807980174
 20
238.1026309663107
 30
0.0
 40
5.0
  0
CIRCLE
  5
709
330
1F
100
AcDbEntity
  8
0
100
AcDbCircle
 10
1007.433807980174
 20
223.1026309663107
 30
0.0
 40
5.0
  0
CIRCLE
  5
70A
330
1F
100
AcDbEntity
  8
0
100
AcDbCircle
 10
1007.433807980174
 20
208.1026309663108
 30
0.0
 40
5.0
  0
CIRCLE
  5
70B
330
1F
100
AcDbEntity
  8
0
100
AcDbCircle
 10
1007.433807980174
 20
193.1026309663107
 30
0.0
 40
5.0
  0
LINE
  5
70C
330
1F
100
AcDbEntity
  8
0
100
AcDbLine
 10
1010.415009418849
 20
185.2186054479048
 30
0.0
 11
1008.222191520191
 21
185.0428112883369
 31
0.0
  0
ARC
  5
70D
330
1F
100
AcDbEntity
  8
0
100
AcDbCircle
 10
1009.878428195266
 20
190.7551866714889
 30
0.0
 40
5.562522004886417
100
AcDbArc
 50
275.5355682194287
 51
354.4644317805712
  0
ARC
  5
70E
330
1F
100
AcDbEntity
  8
0
100
AcDbCircle
 10
921.4150094188498
 20
184.1028897989882
 30
0.0
 40
6.0
100
AcDbArc
 50
180.0
 51
274.5834942886542
  0
LWPOLYLINE
  5
70F
330
1F
100
AcDbEntity
  8
0
100
AcDbPolyline
 90
        4
 70
     0
 43
0.0
 10
915.4150094188498
 20
198.563616033965
 42
-0.4142135623730951
 10
916.4150094188498
 20
199.563616033965
 10
924.4150094188498
 20
199.563616033965
 42
0.4142135623730951
 10
925.4150094188499
 20
200.563616033965
  0
LWPOLYLINE
  5
710
330
1F
100
AcDbEntity
  8
0
100
AcDbPolyline
 90
        4
 70
     0
 43
0.0
 10
915.4150094188498
 20
232.6416458986565
 42
0.4142135623730951
 10
916.4150094188498
 20
231.6416458986565
 10
924.4150094188498
 20
231.6416458986565
 42
-0.4142135623730951
 10
925.4150094188499
 20
230.6416458986565
  0
LINE
  5
711
330
1F
100
AcDbEntity
  8
0
100
AcDbLine
 10
925.4150094188499
 20
200.563616033965
 30
0.0
 11
925.4150094188499
 21
230.6416458986565
 31
0.0
  0
ARC
  5
712
330
1F
100
AcDbEntity
  8
0
100
AcDbCircle
 10
1009.878428195266
 20
240.450075261133
 30
0.0
 40
5.562522004886417
100
AcDbArc
 50
5.535568219428725
 51
84.46443178057128
  0
ARC
  5
713
330
1F
100
AcDbEntity
  8
0
100
AcDbCircle
 10
921.41500941885
 20
247.1023721336333
 30
0.0
 40
6.0
100
AcDbArc
 50
85.41650571134569
 51
180.0
  0
LINE
  5
714
330
1F
100
AcDbEntity
  8
0
100
AcDbLine
 10
915.4150094188498
 20
232.6416458986565
 30
0.0
 11
915.4150094188501
 21
247.1023721336333
 31
0.0
  0
LINE
  5
715
330
1F
100
AcDbEntity
  8
0
100
AcDbLine
 10
915.4150094188498
 20
184.1028897989882
 30
0.0
 11
915.4150094188498
 21
198.563616033965
 31
0.0
  0
LINE
  5
716
330
1F
100
AcDbEntity
  8
0
100
AcDbLine
 10
1015.41500941885
 20
240.9866564847167
 30
0.0
 11
1015.41500941885
 21
190.2186054479048
 31
0.0
  0
ARC
  5
717
330
1F
100
AcDbEntity
  8
0
100
AcDbCircle
 10
951.8363532913612
 20
197.652125716732
 30
0.0
 40
1.224333690279153
100
AcDbArc
 50
144.762832123008
 51
35.23716787699202
  0
ARC
  5
718
330
1F
100
AcDbEntity
  8
0
100
AcDbCircle
 10
951.8363532913612
 20
233.5531362158895
 30
0.0
 40
1.224333690279153
100
AcDbArc
 50
324.762832123008
 51
215.237167876992
  0
LINE
  5
719
330
1F
100
AcDbEntity
  8
0
100
AcDbLine
 10
952.8363532913612
 20
232.8467418606229
 30
0.0
 11
952.8363532913612
 21
198.3585200719986
 31
0.0
  0
LINE
  5
71A
330
1F
100
AcDbEntity
  8
0
100
AcDbLine
 10
950.8363532913612
 20
198.3585200719986
 30
0.0
 11
950.8363532913612
 21
232.8467418606229
 31
0.0
  0
ARC
  5
71B
330
1F
100
AcDbEntity
  8
0
100
AcDbCircle
 10
938.1256813551058
 20
197.6521257167324
 30
0.0
 40
1.224333690279153
100
AcDbArc
 50
144.762832123008
 51
35.23716787699202
  0
ARC
  5
71C
330
1F
100
AcDbEntity
  8
0
100
AcDbCircle
 10
938.1256813551058
 20
233.55313621589
 30
0.0
 40
1.224333690279153
100
AcDbArc
 50
324.762832123008
 51
215.237167876992
  0
LINE
  5
71D
330
1F
100
AcDbEntity
  8
0
100
AcDbLine
 10
939.1256813551057
 20
232.8467418606233
 30
0.0
 11
939.1256813551057
 21
198.3585200719991
 31
0.0
  0
LINE
  5
71E
330
1F
100
AcDbEntity
  8
0
100
AcDbLine
 10
937.1256813551056
 20
198.3585200719991
 30
0.0
 11
937.1256813551056
 21
232.8467418606233
 31
0.0
  0
CIRCLE
  5
71F
330
1F
100
AcDbEntity
  8
0
100
AcDbCircle
 10
925.657171205658
 20
188.7204861289465
 30
0.0
 40
4.943704911190479
  0
CIRCLE
  5
720
330
1F
100
AcDbEntity
  8
0
100
AcDbCircle
 10
925.6571712056581
 20
242.4847758036754
 30
0.0
 40
4.943704911190479
  0
LINE
  5
721
330
1F
100
AcDbEntity
  8
0
100
AcDbLine
 10
1010.41500941885
 20
245.9866564847167
 30
0.0
 11
1008.222191520191
 21
246.1624506442845
 31
0.0
  0
LINE
  5
722
330
1F
100
AcDbEntity
  8
0
100
AcDbLine
 10
1002.433807980174
 20
246.6264946582892
 30
0.0
 11
947.0710935654278
 21
251.0648211868629
 31
0.0
  0
LINE
  5
723
330
1F
100
AcDbEntity
  8
0
100
AcDbLine
 10
941.2827100254109
 20
251.5288652008676
 30
0.0
 11
921.8944800384544
 21
253.083183777962
 31
0.0
  0
LINE
  5
724
330
1F
100
AcDbEntity
  8
0
100
AcDbLine
 10
1002.433807980174
 20
247.8303446418995
 30
0.0
 11
1002.433807980174
 21
246.6264946582892
 31
0.0
  0
ARC
  5
725
330
1F
100
AcDbEntity
  8
0
100
AcDbCircle
 10
1002.085507544157
 20
246.9380027497214
 30
0.0
 40
4.035608026191137
100
AcDbArc
 50
41.710534598606
 51
85.7790042654557
  0
ARC
  5
726
330
1F
100
AcDbEntity
  8
0
100
AcDbCircle
 10
997.9622197009188
 20
249.760144688909
 30
0.0
 40
1.56669287925336
100
AcDbArc
 50
93.29364274386582
 51
266.706357256121
  0
LINE
  5
727
330
1F
100
AcDbEntity
  8
0
100
AcDbLine
 10
1002.382543036167
 20
250.9626644817859
 30
0.0
 11
997.8722080945768
 21
251.3242497009292
 31
0.0
  0
LINE
  5
728
330
1F
100
AcDbEntity
  8
0
100
AcDbLine
 10
1002.433807980174
 20
247.8303446418995
 30
0.0
 11
997.8722080945768
 21
248.1960396768887
 31
0.0
  0
LINE
  5
729
330
1F
100
AcDbEntity
  8
0
100
AcDbLine
 10
1008.222191520191
 20
246.1624506442845
 30
0.0
 11
1005.098152932906
 21
249.623165668932
 31
0.0
  0
LINE
  5
72A
330
1F
100
AcDbEntity
  8
0
100
AcDbLine
 10
941.2827100254109
 20
252.7327151844779
 30
0.0
 11
941.2827100254109
 21
251.5288652008676
 31
0.0
  0
ARC
  5
72B
330
1F
100
AcDbEntity
  8
0
100
AcDbCircle
 10
940.9344095893931
 20
251.8403732923003
 30
0.0
 40
4.035608026191137
100
AcDbArc
 50
41.710534598606
 51
85.7790042654557
  0
ARC
  5
72C
330
1F
100
AcDbEntity
  8
0
100
AcDbCircle
 10
936.8111217461555
 20
254.6625152314878
 30
0.0
 40
1.56669287925336
100
AcDbArc
 50
93.29364274386582
 51
266.706357256121
  0
LINE
  5
72D
330
1F
100
AcDbEntity
  8
0
100
AcDbLine
 10
941.2314450814033
 20
255.8650350243648
 30
0.0
 11
936.7211101398133
 21
256.2266202435081
 31
0.0
  0
LINE
  5
72E
330
1F
100
AcDbEntity
  8
0
100
AcDbLine
 10
941.2827100254109
 20
252.7327151844779
 30
0.0
 11
936.7211101398133
 21
253.0984102194675
 31
0.0
  0
LINE
  5
72F
330
1F
100
AcDbEntity
  8
0
100
AcDbLine
 10
947.0710935654278
 20
251.0648211868629
 30
0.0
 11
943.9470549781431
 21
254.5255362115104
 31
0.0
  0
LINE
  5
730
330
1F
100
AcDbEntity
  8
0
100
AcDbLine
 10
1002.433807980173
 20
184.5787672743304
 30
0.0
 11
947.0710935654263
 21
180.1404407457585
 31
0.0
  0
LINE
  5
731
330
1F
100
AcDbEntity
  8
0
100
AcDbLine
 10
941.2827100254094
 20
179.6763967317543
 30
0.0
 11
921.8944800384532
 21
178.1220781546609
 31
0.0
  0
LINE
  5
732
330
1F
100
AcDbEntity
  8
0
100
AcDbLine
 10
1002.433807980173
 20
183.3749172907206
 30
0.0
 11
1002.433807980173
 21
184.5787672743309
 31
0.0
  0
ARC
  5
733
330
1F
100
AcDbEntity
  8
0
100
AcDbCircle
 10
1002.085507544155
 20
184.2672591828982
 30
0.0
 40
4.035608026191137
100
AcDbArc
 50
274.2209957345443
 51
318.2894654014031
  0
ARC
  5
734
330
1F
100
AcDbEntity
  8
0
100
AcDbCircle
 10
997.9622197009176
 20
181.4451172437112
 30
0.0
 40
1.56669287925336
100
AcDbArc
 50
93.29364274386582
 51
266.706357256121
  0
LINE
  5
735
330
1F
100
AcDbEntity
  8
0
100
AcDbLine
 10
1002.382543036165
 20
180.2425974508338
 30
0.0
 11
997.8722080945754
 21
179.8810122316909
 31
0.0
  0
LINE
  5
736
330
1F
100
AcDbEntity
  8
0
100
AcDbLine
 10
1002.433807980173
 20
183.3749172907206
 30
0.0
 11
997.8722080945756
 21
183.0092222557314
 31
0.0
  0
LINE
  5
737
330
1F
100
AcDbEntity
  8
0
100
AcDbLine
 10
1008.22219152019
 20
185.0428112883351
 30
0.0
 11
1005.098152932905
 21
181.5820962636881
 31
0.0
  0
LINE
  5
738
330
1F
100
AcDbEntity
  8
0
100
AcDbLine
 10
941.2827100254094
 20
178.472546748144
 30
0.0
 11
941.2827100254094
 21
179.6763967317543
 31
0.0
  0
ARC
  5
739
330
1F
100
AcDbEntity
  8
0
100
AcDbCircle
 10
940.9344095893919
 20
179.3648886403216
 30
0.0
 40
4.035608026191137
100
AcDbArc
 50
274.2209957345443
 51
318.289465401394
  0
ARC
  5
73A
330
1F
100
AcDbEntity
  8
0
100
AcDbCircle
 10
936.8111217461539
 20
176.5427467011346
 30
0.0
 40
1.56669287925336
100
AcDbArc
 50
93.29364274386582
 51
266.706357256121
  0
LINE
  5
73B
330
1F
100
AcDbEntity
  8
0
100
AcDbLine
 10
941.2314450814019
 20
175.3402269082572
 30
0.0
 11
936.7211101398119
 21
174.9786416891143
 31
0.0
  0
LINE
  5
73C
330
1F
100
AcDbEntity
  8
0
100
AcDbLine
 10
941.2827100254094
 20
178.472546748144
 30
0.0
 11
936.7211101398121
 21
178.1068517131549
 31
0.0
  0
LINE
  5
73D
330
1F
100
AcDbEntity
  8
0
100
AcDbLine
 10
947.0710935654263
 20
180.1404407457585
 30
0.0
 11
943.9470549781416
 21
176.6797257211115
 31
0.0
  0
LINE
  5
782
330
1F
100
AcDbEntity
  8
0
100
AcDbLine
 10
1113.5500286369
 20
108.948028278009
 30
0.0
 11
1105.568827198223
 21
108.3081901044351
 31
0.0
  0
LINE
  5
784
330
1F
100
AcDbEntity
  8
0
100
AcDbLine
 10
1099.584143868578
 20
107.7905032482817
 30
0.0
 11
1044.41772924346
 21
103.410263108865
 31
0.0
  0
LINE
  5
785
330
1F
100
AcDbEntity
  8
0
100
AcDbLine
 10
1038.433045913814
 20
102.8881327057053
 30
0.0
 11
1025.029499256503
 21
101.8515009847653
 31
0.0
  0
LINE
  5
786
330
1F
100
AcDbEntity
  8
0
100
AcDbLine
 10
1105.568827198223
 20
107.1043401208248
 30
0.0
 11
1105.568827198223
 21
108.3081901044351
 31
0.0
  0
ARC
  5
787
330
1F
100
AcDbEntity
  8
0
100
AcDbCircle
 10
1105.764523966075
 20
108.0420447765231
 30
0.0
 40
4.035608026191137
100
AcDbArc
 50
231.2440233325955
 51
275.31249299945
  0
ARC
  5
788
330
1F
100
AcDbEntity
  8
0
100
AcDbCircle
 10
1110.298279513771
 20
105.9417951730599
 30
0.0
 40
1.56669287925336
100
AcDbArc
 50
282.8271314778705
 51
96.2398459901296
  0
LINE
  5
789
330
1F
100
AcDbEntity
  8
0
100
AcDbLine
 10
1106.138171619291
 20
104.0237715687503
 30
0.0
 11
1110.646101373967
 21
104.4142001575298
 31
0.0
  0
LINE
  5
78A
330
1F
100
AcDbEntity
  8
0
100
AcDbLine
 10
1105.568827198223
 20
107.1043401208248
 30
0.0
 11
1110.127994559298
 21
107.4992063622398
 31
0.0
  0
LINE
  5
78B
330
1F
100
AcDbEntity
  8
0
100
AcDbLine
 10
1099.584143868578
 20
107.7905032482817
 30
0.0
 11
1103.238213888039
 21
104.8950002057114
 31
0.0
  0
LINE
  5
78C
330
1F
100
AcDbEntity
  8
0
100
AcDbLine
 10
1044.41772924346
 20
102.2019695782484
 30
0.0
 11
1044.41772924346
 21
103.4058195618587
 31
0.0
  0
ARC
  5
78D
330
1F
100
AcDbEntity
  8
0
100
AcDbCircle
 10
1044.613426011311
 20
103.1396742339468
 30
0.0
 40
4.035608026191137
100
AcDbArc
 50
231.2440233325955
 51
275.31249299945
  0
ARC
  5
78E
330
1F
100
AcDbEntity
  8
0
100
AcDbCircle
 10
1049.147181559007
 20
101.0394246304835
 30
0.0
 40
1.56669287925336
100
AcDbArc
 50
282.8271314778705
 51
96.2398459901296
  0
LINE
  5
78F
330
1F
100
AcDbEntity
  8
0
100
AcDbLine
 10
1044.987073664528
 20
99.12140102617394
 30
0.0
 11
1049.495003419204
 21
99.51182961495346
 31
0.0
  0
LINE
  5
790
330
1F
100
AcDbEntity
  8
0
100
AcDbLine
 10
1044.417729243459
 20
102.2019695782484
 30
0.0
 11
1048.976896604534
 21
102.5968358196634
 31
0.0
  0
LINE
  5
791
330
1F
100
AcDbEntity
  8
0
100
AcDbLine
 10
1038.433045913814
 20
102.8881327057053
 30
0.0
 11
1042.087115933276
 21
99.99262966313512
 31
0.0
  0
LINE
  5
794
330
1F
100
AcDbEntity
  8
0
100
AcDbLine
 10
1113.5500286369
 20
169.7160793148231
 30
0.0
 11
1105.568827198223
 21
170.3559174883971
 31
0.0
  0
LINE
  5
795
330
1F
100
AcDbEntity
  8
0
100
AcDbLine
 10
1099.584143868578
 20
170.8736043445505
 30
0.0
 11
1044.41772924346
 21
175.2538444839676
 31
0.0
  0
LINE
  5
796
330
1F
100
AcDbEntity
  8
0
100
AcDbLine
 10
1038.433045913814
 20
175.7759748871273
 30
0.0
 11
1025.029499256503
 21
176.8126066080673
 31
0.0
  0
LINE
  5
797
330
1F
100
AcDbEntity
  8
0
100
AcDbLine
 10
1105.568827198223
 20
171.5597674720074
 30
0.0
 11
1105.568827198223
 21
170.3559174883971
 31
0.0
  0
ARC
  5
798
330
1F
100
AcDbEntity
  8
0
100
AcDbCircle
 10
1105.764523966075
 20
170.6220628163091
 30
0.0
 40
4.035608026191137
100
AcDbArc
 50
84.68750700055004
 51
128.7559766674009
  0
ARC
  5
799
330
1F
100
AcDbEntity
  8
0
100
AcDbCircle
 10
1110.298279513771
 20
172.7223124197723
 30
0.0
 40
1.56669287925336
100
AcDbArc
 50
263.7601540098704
 51
77.1728685221267
  0
LINE
  5
79A
330
1F
100
AcDbEntity
  8
0
100
AcDbLine
 10
1106.138171619291
 20
174.6403360240819
 30
0.0
 11
1110.646101373967
 21
174.2499074353024
 31
0.0
  0
LINE
  5
79B
330
1F
100
AcDbEntity
  8
0
100
AcDbLine
 10
1105.568827198223
 20
171.5597674720074
 30
0.0
 11
1110.127994559298
 21
171.1649012305924
 31
0.0
  0
LINE
  5
79C
330
1F
100
AcDbEntity
  8
0
100
AcDbLine
 10
1099.584143868578
 20
170.8736043445505
 30
0.0
 11
1103.238213888039
 21
173.7691073871207
 31
0.0
  0
LINE
  5
79D
330
1F
100
AcDbEntity
  8
0
100
AcDbLine
 10
1044.41772924346
 20
176.4621380145842
 30
0.0
 11
1044.41772924346
 21
175.2582880309739
 31
0.0
  0
ARC
  5
79E
330
1F
100
AcDbEntity
  8
0
100
AcDbCircle
 10
1044.613426011311
 20
175.5244333588859
 30
0.0
 40
4.035608026191137
100
AcDbArc
 50
84.68750700055004
 51
128.7559766674009
  0
ARC
  5
79F
330
1F
100
AcDbEntity
  8
0
100
AcDbCircle
 10
1049.147181559007
 20
177.6246829623491
 30
0.0
 40
1.56669287925336
100
AcDbArc
 50
263.7601540098704
 51
77.1728685221267
  0
LINE
  5
7A0
330
1F
100
AcDbEntity
  8
0
100
AcDbLine
 10
1044.987073664528
 20
179.5427065666587
 30
0.0
 11
1049.495003419204
 21
179.1522779778792
 31
0.0
  0
LINE
  5
7A1
330
1F
100
AcDbEntity
  8
0
100
AcDbLine
 10
1044.417729243459
 20
176.4621380145842
 30
0.0
 11
1048.976896604534
 21
176.0672717731692
 31
0.0
  0
LINE
  5
7A2
330
1F
100
AcDbEntity
  8
0
100
AcDbLine
 10
1038.433045913814
 20
175.7759748871273
 30
0.0
 11
1042.087115933276
 21
178.6714779296976
 31
0.0
  0
LINE
  5
7C9
330
1F
100
AcDbEntity
  8
0
100
AcDbLine
 10
1025.158700375081
 20
245.1495757179904
 30
0.0
 11
1033.139901813758
 21
245.7894138915644
 31
0.0
  0
LINE
  5
7CA
330
1F
100
AcDbEntity
  8
0
100
AcDbLine
 10
1039.124585143403
 20
246.3071007477178
 30
0.0
 11
1094.290999768521
 21
250.6873408871344
 31
0.0
  0
LINE
  5
7CB
330
1F
100
AcDbEntity
  8
0
100
AcDbLine
 10
1100.275683098167
 20
251.2094712902942
 30
0.0
 11
1113.679229755478
 21
252.2461030112342
 31
0.0
  0
LINE
  5
7CC
330
1F
100
AcDbEntity
  8
0
100
AcDbLine
 10
1033.139901813758
 20
246.9932638751747
 30
0.0
 11
1033.139901813758
 21
245.7894138915644
 31
0.0
  0
ARC
  5
7CD
330
1F
100
AcDbEntity
  8
0
100
AcDbCircle
 10
1032.944205045906
 20
246.0555592194764
 30
0.0
 40
4.035608026191137
100
AcDbArc
 50
51.24402333259542
 51
95.31249299944986
  0
ARC
  5
7CE
330
1F
100
AcDbEntity
  8
0
100
AcDbCircle
 10
1028.41044949821
 20
248.1558088229396
 30
0.0
 40
1.56669287925336
100
AcDbArc
 50
102.8271314778733
 51
276.2398459901297
  0
LINE
  5
7CF
330
1F
100
AcDbEntity
  8
0
100
AcDbLine
 10
1032.570557392689
 20
250.0738324272492
 30
0.0
 11
1028.062627638014
 21
249.6834038384697
 31
0.0
  0
LINE
  5
7D0
330
1F
100
AcDbEntity
  8
0
100
AcDbLine
 10
1033.139901813758
 20
246.9932638751747
 30
0.0
 11
1028.580734452683
 21
246.5983976337597
 31
0.0
  0
LINE
  5
7D1
330
1F
100
AcDbEntity
  8
0
100
AcDbLine
 10
1039.124585143403
 20
246.3071007477178
 30
0.0
 11
1035.470515123942
 21
249.202603790288
 31
0.0
  0
LINE
  5
7D2
330
1F
100
AcDbEntity
  8
0
100
AcDbLine
 10
1094.290999768521
 20
251.8956344177511
 30
0.0
 11
1094.290999768521
 21
250.6917844341407
 31
0.0
  0
ARC
  5
7D3
330
1F
100
AcDbEntity
  8
0
100
AcDbCircle
 10
1094.09530300067
 20
250.9579297620527
 30
0.0
 40
4.035608026191137
100
AcDbArc
 50
51.24402333259542
 51
95.31249299944986
  0
ARC
  5
7D4
330
1F
100
AcDbEntity
  8
0
100
AcDbCircle
 10
1089.561547452974
 20
253.058179365516
 30
0.0
 40
1.56669287925336
100
AcDbArc
 50
102.8271314778733
 51
276.2398459901297
  0
LINE
  5
7D5
330
1F
100
AcDbEntity
  8
0
100
AcDbLine
 10
1093.721655347453
 20
254.9762029698256
 30
0.0
 11
1089.213725592777
 21
254.5857743810461
 31
0.0
  0
LINE
  5
7D6
330
1F
100
AcDbEntity
  8
0
100
AcDbLine
 10
1094.290999768522
 20
251.8956344177511
 30
0.0
 11
1089.731832407446
 21
251.5007681763361
 31
0.0
  0
LINE
  5
7D7
330
1F
100
AcDbEntity
  8
0
100
AcDbLine
 10
1100.275683098167
 20
251.2094712902942
 30
0.0
 11
1096.621613078705
 21
254.1049743328644
 31
0.0
  0
LINE
  5
7D8
330
1F
100
AcDbEntity
  8
0
100
AcDbLine
 10
1025.158700375081
 20
184.3815246811763
 30
0.0
 11
1033.139901813757
 21
183.7416865076024
 31
0.0
  0
LINE
  5
7D9
330
1F
100
AcDbEntity
  8
0
100
AcDbLine
 10
1039.124585143403
 20
183.223999651449
 30
0.0
 11
1094.290999768521
 21
178.8437595120319
 31
0.0
  0
LINE
  5
7DA
330
1F
100
AcDbEntity
  8
0
100
AcDbLine
 10
1100.275683098167
 20
178.3216291088721
 30
0.0
 11
1113.679229755478
 21
177.2849973879321
 31
0.0
  0
LINE
  5
7DB
330
1F
100
AcDbEntity
  8
0
100
AcDbLine
 10
1033.139901813758
 20
182.5378365239921
 30
0.0
 11
1033.139901813757
 21
183.7416865076024
 31
0.0
  0
ARC
  5
7DC
330
1F
100
AcDbEntity
  8
0
100
AcDbCircle
 10
1032.944205045906
 20
183.4755411796904
 30
0.0
 40
4.035608026191137
100
AcDbArc
 50
264.68750700055
 51
308.7559766673994
  0
ARC
  5
7DD
330
1F
100
AcDbEntity
  8
0
100
AcDbCircle
 10
1028.41044949821
 20
181.3752915762272
 30
0.0
 40
1.56669287925336
100
AcDbArc
 50
83.76015400987041
 51
257.1728685221267
  0
LINE
  5
7DE
330
1F
100
AcDbEntity
  8
0
100
AcDbLine
 10
1032.570557392689
 20
179.4572679719176
 30
0.0
 11
1028.062627638013
 21
179.8476965606971
 31
0.0
  0
LINE
  5
7DF
330
1F
100
AcDbEntity
  8
0
100
AcDbLine
 10
1033.139901813758
 20
182.5378365239921
 30
0.0
 11
1028.580734452683
 21
182.9327027654071
 31
0.0
  0
LINE
  5
7E0
330
1F
100
AcDbEntity
  8
0
100
AcDbLine
 10
1039.124585143403
 20
183.223999651449
 30
0.0
 11
1035.470515123941
 21
180.3284966088788
 31
0.0
  0
LINE
  5
7E1
330
1F
100
AcDbEntity
  8
0
100
AcDbLine
 10
1094.290999768521
 20
177.6354659814153
 30
0.0
 11
1094.290999768521
 21
178.8393159650256
 31
0.0
  0
ARC
  5
7E2
330
1F
100
AcDbEntity
  8
0
100
AcDbCircle
 10
1094.09530300067
 20
178.5731706371136
 30
0.0
 40
4.035608026191137
100
AcDbArc
 50
264.68750700055
 51
308.7559766673994
  0
ARC
  5
7E3
330
1F
100
AcDbEntity
  8
0
100
AcDbCircle
 10
1089.561547452974
 20
176.4729210336503
 30
0.0
 40
1.56669287925336
100
AcDbArc
 50
83.76015400987041
 51
257.1728685221267
  0
LINE
  5
7E4
330
1F
100
AcDbEntity
  8
0
100
AcDbLine
 10
1093.721655347453
 20
174.5548974293408
 30
0.0
 11
1089.213725592777
 21
174.9453260181203
 31
0.0
  0
LINE
  5
7E5
330
1F
100
AcDbEntity
  8
0
100
AcDbLine
 10
1094.290999768521
 20
177.6354659814153
 30
0.0
 11
1089.731832407446
 21
178.0303322228303
 31
0.0
  0
LINE
  5
7E6
330
1F
100
AcDbEntity
  8
0
100
AcDbLine
 10
1100.275683098167
 20
178.3216291088721
 30
0.0
 11
1096.621613078705
 21
175.4261260663019
 31
0.0
  0
CIRCLE
  5
823
330
1F
100
AcDbEntity
  8
0
100
AcDbCircle
 10
920.6428637948148
 20
116.0758454108905
 30
0.0
 40
5.0
  0
CIRCLE
  5
824
330
1F
100
AcDbEntity
  8
0
100
AcDbCircle
 10
920.6428637948148
 20
131.0758454108905
 30
0.0
 40
5.0
  0
CIRCLE
  5
825
330
1F
100
AcDbEntity
  8
0
100
AcDbCircle
 10
920.6428637948148
 20
146.0758454108905
 30
0.0
 40
5.0
  0
CIRCLE
  5
826
330
1F
100
AcDbEntity
  8
0
100
AcDbCircle
 10
920.6428637948148
 20
161.0758454108905
 30
0.0
 40
5.0
  0
LINE
  5
827
330
1F
100
AcDbEntity
  8
0
100
AcDbLine
 10
917.661662356139
 20
168.9598709292964
 30
0.0
 11
919.8544802547978
 21
169.1356650888643
 31
0.0
  0
ARC
  5
828
330
1F
100
AcDbEntity
  8
0
100
AcDbCircle
 10
918.1982435797229
 20
163.4232897057123
 30
0.0
 40
5.562522004886417
100
AcDbArc
 50
95.53556821942873
 51
174.4644317805712
  0
ARC
  5
829
330
1F
100
AcDbEntity
  8
0
100
AcDbCircle
 10
1006.661662356139
 20
170.075586578213
 30
0.0
 40
6.0
100
AcDbArc
 50
0.0
 51
94.58349428865503
  0
LWPOLYLINE
  5
82A
330
1F
100
AcDbEntity
  8
0
100
AcDbPolyline
 90
        4
 70
     0
 43
0.0
 10
1012.661662356139
 20
155.6148603432362
 42
-0.4142135623730951
 10
1011.661662356139
 20
154.6148603432362
 10
1003.661662356139
 20
154.6148603432362
 42
0.4142135623730951
 10
1002.661662356139
 20
153.6148603432362
  0
LWPOLYLINE
  5
82B
330
1F
100
AcDbEntity
  8
0
100
AcDbPolyline
 90
        4
 70
     0
 43
0.0
 10
1012.661662356139
 20
121.5368304785448
 42
0.4142135623730951
 10
1011.661662356139
 20
122.5368304785448
 10
1003.661662356139
 20
122.5368304785448
 42
-0.4142135623730951
 10
1002.661662356139
 20
123.5368304785448
  0
LINE
  5
82C
330
1F
100
AcDbEntity
  8
0
100
AcDbLine
 10
1002.661662356139
 20
153.6148603432362
 30
0.0
 11
1002.661662356139
 21
123.5368304785448
 31
0.0
  0
ARC
  5
82D
330
1F
100
AcDbEntity
  8
0
100
AcDbCircle
 10
918.1982435797229
 20
113.7284011160682
 30
0.0
 40
5.562522004886417
100
AcDbArc
 50
185.5355682194287
 51
264.4644317805713
  0
ARC
  5
82E
330
1F
100
AcDbEntity
  8
0
100
AcDbCircle
 10
1006.661662356139
 20
107.0761042435679
 30
0.0
 40
6.0
100
AcDbArc
 50
265.4165057113449
 51
0.0
  0
LINE
  5
82F
330
1F
100
AcDbEntity
  8
0
100
AcDbLine
 10
1012.661662356139
 20
121.5368304785448
 30
0.0
 11
1012.661662356139
 21
107.0761042435679
 31
0.0
  0
LINE
  5
830
330
1F
100
AcDbEntity
  8
0
100
AcDbLine
 10
1012.661662356139
 20
170.075586578213
 30
0.0
 11
1012.661662356139
 21
155.6148603432362
 31
0.0
  0
LINE
  5
831
330
1F
100
AcDbEntity
  8
0
100
AcDbLine
 10
912.6616623561387
 20
113.1918198924846
 30
0.0
 11
912.6616623561389
 21
163.9598709292964
 31
0.0
  0
ARC
  5
832
330
1F
100
AcDbEntity
  8
0
100
AcDbCircle
 10
976.2403184836275
 20
156.5263506604693
 30
0.0
 40
1.224333690279153
100
AcDbArc
 50
324.762832123008
 51
215.237167876992
  0
ARC
  5
833
330
1F
100
AcDbEntity
  8
0
100
AcDbCircle
 10
976.2403184836275
 20
120.6253401613117
 30
0.0
 40
1.224333690279153
100
AcDbArc
 50
144.762832123008
 51
35.23716787699202
  0
LINE
  5
834
330
1F
100
AcDbEntity
  8
0
100
AcDbLine
 10
975.2403184836275
 20
121.3317345165783
 30
0.0
 11
975.2403184836275
 21
155.8199563052026
 31
0.0
  0
LINE
  5
835
330
1F
100
AcDbEntity
  8
0
100
AcDbLine
 10
977.2403184836276
 20
155.8199563052026
 30
0.0
 11
977.2403184836276
 21
121.3317345165783
 31
0.0
  0
ARC
  5
836
330
1F
100
AcDbEntity
  8
0
100
AcDbCircle
 10
989.9509904198831
 20
156.5263506604688
 30
0.0
 40
1.224333690279153
100
AcDbArc
 50
324.762832123008
 51
215.237167876992
  0
ARC
  5
837
330
1F
100
AcDbEntity
  8
0
100
AcDbCircle
 10
989.9509904198831
 20
120.6253401613113
 30
0.0
 40
1.224333690279153
100
AcDbArc
 50
144.762832123008
 51
35.23716787699202
  0
LINE
  5
838
330
1F
100
AcDbEntity
  8
0
100
AcDbLine
 10
988.9509904198829
 20
121.3317345165779
 30
0.0
 11
988.9509904198829
 21
155.8199563052022
 31
0.0
  0
LINE
  5
839
330
1F
100
AcDbEntity
  8
0
100
AcDbLine
 10
990.9509904198831
 20
155.8199563052022
 30
0.0
 11
990.9509904198831
 21
121.3317345165779
 31
0.0
  0
CIRCLE
  5
83A
330
1F
100
AcDbEntity
  8
0
100
AcDbCircle
 10
1002.419500569331
 20
165.4579902482547
 30
0.0
 40
4.943704911190479
  0
CIRCLE
  5
83B
330
1F
100
AcDbEntity
  8
0
100
AcDbCircle
 10
1002.419500569331
 20
111.6937005735258
 30
0.0
 40
4.943704911190479
  0
LINE
  5
83C
330
1F
100
AcDbEntity
  8
0
100
AcDbLine
 10
917.6616623561388
 20
108.1918198924846
 30
0.0
 11
919.8544802547978
 21
108.0160257329167
 31
0.0
  0
LINE
  5
83D
330
1F
100
AcDbEntity
  8
0
100
AcDbLine
 10
925.6428637948145
 20
107.551981718912
 30
0.0
 11
981.0055782095611
 21
103.1136551903383
 31
0.0
  0
LINE
  5
83E
330
1F
100
AcDbEntity
  8
0
100
AcDbLine
 10
986.793961749578
 20
102.6496111763336
 30
0.0
 11
1006.182191736534
 21
101.0952925992392
 31
0.0
  0
LINE
  5
83F
330
1F
100
AcDbEntity
  8
0
100
AcDbLine
 10
925.6428637948145
 20
106.3481317353017
 30
0.0
 11
925.6428637948145
 21
107.551981718912
 31
0.0
  0
ARC
  5
840
330
1F
100
AcDbEntity
  8
0
100
AcDbCircle
 10
925.9911642308322
 20
107.2404736274798
 30
0.0
 40
4.035608026191137
100
AcDbArc
 50
221.7105345986048
 51
265.7790042654549
  0
ARC
  5
841
330
1F
100
AcDbEntity
  8
0
100
AcDbCircle
 10
930.1144520740701
 20
104.4183316882923
 30
0.0
 40
1.56669287925336
100
AcDbArc
 50
273.2936427438659
 51
86.70635725612092
  0
LINE
  5
842
330
1F
100
AcDbEntity
  8
0
100
AcDbLine
 10
925.6941287388222
 20
103.2158118954153
 30
0.0
 11
930.204463680412
 21
102.854226676272
 31
0.0
  0
LINE
  5
843
330
1F
100
AcDbEntity
  8
0
100
AcDbLine
 10
925.6428637948145
 20
106.3481317353017
 30
0.0
 11
930.204463680412
 21
105.9824367003125
 31
0.0
  0
LINE
  5
844
330
1F
100
AcDbEntity
  8
0
100
AcDbLine
 10
919.8544802547978
 20
108.0160257329167
 30
0.0
 11
922.9785188420823
 21
104.5553107082692
 31
0.0
  0
LINE
  5
845
330
1F
100
AcDbEntity
  8
0
100
AcDbLine
 10
986.793961749578
 20
101.4457611927233
 30
0.0
 11
986.793961749578
 21
102.6496111763336
 31
0.0
  0
ARC
  5
846
330
1F
100
AcDbEntity
  8
0
100
AcDbCircle
 10
987.1422621855955
 20
102.338103084901
 30
0.0
 40
4.035608026191137
100
AcDbArc
 50
221.7105345986048
 51
265.7790042654549
  0
ARC
  5
847
330
1F
100
AcDbEntity
  8
0
100
AcDbCircle
 10
991.2655500288334
 20
99.51596114571344
 30
0.0
 40
1.56669287925336
100
AcDbArc
 50
273.2936427438659
 51
86.70635725612092
  0
LINE
  5
848
330
1F
100
AcDbEntity
  8
0
100
AcDbLine
 10
986.8452266935856
 20
98.3134413528365
 30
0.0
 11
991.3555616351755
 21
97.95185613369319
 31
0.0
  0
LINE
  5
849
330
1F
100
AcDbEntity
  8
0
100
AcDbLine
 10
986.793961749578
 20
101.4457611927233
 30
0.0
 11
991.3555616351755
 21
101.0800661577337
 31
0.0
  0
LINE
  5
84A
330
1F
100
AcDbEntity
  8
0
100
AcDbLine
 10
981.0055782095611
 20
103.1136551903383
 30
0.0
 11
984.1296167968458
 21
99.65294016569083
 31
0.0
  0
LINE
  5
84B
330
1F
100
AcDbEntity
  8
0
100
AcDbLine
 10
925.6428637948156
 20
169.5997091028708
 30
0.0
 11
981.0055782095624
 21
174.0380356314427
 31
0.0
  0
LINE
  5
84C
330
1F
100
AcDbEntity
  8
0
100
AcDbLine
 10
986.7939617495792
 20
174.5020796454469
 30
0.0
 11
1006.182191736535
 21
176.0563982225404
 31
0.0
  0
LINE
  5
84D
330
1F
100
AcDbEntity
  8
0
100
AcDbLine
 10
925.6428637948157
 20
170.8035590864807
 30
0.0
 11
925.6428637948156
 21
169.5997091028703
 31
0.0
  0
ARC
  5
84E
330
1F
100
AcDbEntity
  8
0
100
AcDbCircle
 10
925.9911642308333
 20
169.911217194303
 30
0.0
 40
4.035608026191137
100
AcDbArc
 50
94.22099573454513
 51
138.2894654014031
  0
ARC
  5
84F
330
1F
100
AcDbEntity
  8
0
100
AcDbCircle
 10
930.1144520740711
 20
172.7333591334901
 30
0.0
 40
1.56669287925336
100
AcDbArc
 50
273.2936427438659
 51
86.70635725612092
  0
LINE
  5
850
330
1F
100
AcDbEntity
  8
0
100
AcDbLine
 10
925.6941287388235
 20
173.9358789263675
 30
0.0
 11
930.2044636804133
 21
174.2974641455103
 31
0.0
  0
LINE
  5
851
330
1F
100
AcDbEntity
  8
0
100
AcDbLine
 10
925.6428637948157
 20
170.8035590864807
 30
0.0
 11
930.2044636804133
 21
171.1692541214698
 31
0.0
  0
LINE
  5
852
330
1F
100
AcDbEntity
  8
0
100
AcDbLine
 10
919.8544802547987
 20
169.1356650888661
 30
0.0
 11
922.9785188420835
 21
172.5963801135131
 31
0.0
  0
LINE
  5
853
330
1F
100
AcDbEntity
  8
0
100
AcDbLine
 10
986.7939617495792
 20
175.7059296290572
 30
0.0
 11
986.7939617495792
 21
174.5020796454469
 31
0.0
  0
ARC
  5
854
330
1F
100
AcDbEntity
  8
0
100
AcDbCircle
 10
987.1422621855968
 20
174.8135877368796
 30
0.0
 40
4.035608026191137
100
AcDbArc
 50
94.22099573454513
 51
138.2894654013951
  0
ARC
  5
855
330
1F
100
AcDbEntity
  8
0
100
AcDbCircle
 10
991.2655500288348
 20
177.6357296760666
 30
0.0
 40
1.56669287925336
100
AcDbArc
 50
273.2936427438659
 51
86.70635725612092
  0
LINE
  5
856
330
1F
100
AcDbEntity
  8
0
100
AcDbLine
 10
986.845226693587
 20
178.838249468944
 30
0.0
 11
991.3555616351768
 21
179.1998346880869
 31
0.0
  0
LINE
  5
857
330
1F
100
AcDbEntity
  8
0
100
AcDbLine
 10
986.7939617495792
 20
175.7059296290572
 30
0.0
 11
991.3555616351768
 21
176.0716246640464
 31
0.0
  0
LINE
  5
858
330
1F
100
AcDbEntity
  8
0
100
AcDbLine
 10
981.0055782095624
 20
174.0380356314427
 30
0.0
 11
984.129616796847
 21
177.4987506560897
 31
0.0
  0
MTEXT
  5
8B5
330
1F
100
AcDbEntity
  8
0
100
AcDbMText
 10
1134.636767369732
 20
143.4786803830898
 30
0.0
 40
5.0
 41
62.98496429844272
 46
0.0
 71
     1
 72
     5
  1
www.maclab.sk
 73
     1
 44
1.0
  0
ENDSEC
  0
SECTION
  2
OBJECTS
  0
DICTIONARY
  5
C
330
0
100
AcDbDictionary
281
     1
  3
ACAD_COLOR
350
6B
  3
ACAD_GROUP
350
D
  3
ACAD_LAYOUT
350
1A
  3
ACAD_MATERIAL
350
6A
  3
ACAD_MLINESTYLE
350
17
  3
ACAD_PLOTSETTINGS
350
19
  3
ACAD_PLOTSTYLENAME
350
E
  3
ACAD_TABLESTYLE
350
7E
  3
ACAD_VISUALSTYLE
350
EF
  3
AcDbVariableDictionary
350
5E
  0
DICTIONARY
  5
145
330
1F
100
AcDbDictionary
280
     1
281
     1
  3
ACAD_SORTENTS
360
146
  0
DICTIONARY
  5
6B
102
{ACAD_REACTORS
330
C
102
}
330
C
100
AcDbDictionary
281
     1
  0
DICTIONARY
  5
D
102
{ACAD_REACTORS
330
C
102
}
330
C
100
AcDbDictionary
281
     1
  0
DICTIONARY
  5
1A
102
{ACAD_REACTORS
330
C
102
}
330
C
100
AcDbDictionary
281
     1
  3
Layout1
350
D3
  3
Layout2
350
D7
  3
Model
350
22
  0
DICTIONARY
  5
6A
102
{ACAD_REACTORS
330
C
102
}
330
C
100
AcDbDictionary
281
     1
  3
ByBlock
350
ED
  3
ByLayer
350
EC
  3
Global
350
EE
  0
DICTIONARY
  5
17
102
{ACAD_REACTORS
330
C
102
}
330
C
100
AcDbDictionary
281
     1
  3
Standard
350
18
  0
DICTIONARY
  5
19
102
{ACAD_REACTORS
330
C
102
}
330
C
100
AcDbDictionary
281
     1
  0
ACDBDICTIONARYWDFLT
  5
E
102
{ACAD_REACTORS
330
C
102
}
330
C
100
AcDbDictionary
281
     1
  3
Normal
350
F
100
AcDbDictionaryWithDefault
340
F
  0
DICTIONARY
  5
7E
102
{ACAD_REACTORS
330
C
102
}
330
C
100
AcDbDictionary
281
     1
  3
Standard
350
7F
  0
DICTIONARY
  5
EF
102
{ACAD_REACTORS
330
C
102
}
330
C
100
AcDbDictionary
281
     1
  3
2dWireframe
350
F5
  3
3D Hidden
350
F7
  3
3dWireframe
350
F6
  3
Basic
350
F4
  3
Brighten
350
FB
  3
ColorChange
350
FF
  3
Conceptual
350
F8
  3
Dim
350
FA
  3
Facepattern
350
FE
  3
Flat
350
F0
  3
FlatWithEdges
350
F1
  3
Gouraud
350
F2
  3
GouraudWithEdges
350
F3
  3
Linepattern
350
FD
  3
Realistic
350
F9
  3
Thicken
350
FC
  0
DICTIONARY
  5
5E
102
{ACAD_REACTORS
330
C
102
}
330
C
100
AcDbDictionary
281
     1
  3
CTABLESTYLE
350
84
  3
DIMASSOC
350
5F
  3
HIDETEXT
350
63
  0
SORTENTSTABLE
  5
146
102
{ACAD_REACTORS
330
145
102
}
330
145
100
AcDbSortentsTable
330
1F
331
2DC
  5
2DE
331
641
  5
642
331
4B4
  5
4B5
331
2C7
  5
2C9
331
5DC
  5
5DD
331
61C
  5
618
331
4BF
  5
4C6
331
654
  5
655
331
5E7
  5
5E8
331
2DD
  5
2DF
331
4B5
  5
4BE
331
642
  5
643
331
2C8
  5
2CA
331
5DD
  5
5DE
331
61D
  5
61E
331
655
  5
656
331
5E8
  5
5E9
331
2DE
  5
2E2
331
643
  5
645
331
2C9
  5
2CB
331
5DE
  5
5DF
331
2F1
  5
2F3
331
61E
  5
61F
331
656
  5
659
331
5E9
  5
5EA
331
4AC
  5
4AD
331
2DF
  5
2F1
331
2CA
  5
2CC
331
5DF
  5
5E1
331
2F2
  5
30F
331
61F
  5
620
331
5EA
  5
5EB
331
2D5
  5
2D7
331
4AD
  5
4AE
331
63A
  5
63D
331
645
  5
651
331
2CB
  5
2CF
331
2F3
  5
310
331
620
  5
621
331
2D6
  5
2D8
331
4AE
  5
4AF
331
2C1
  5
2BE
331
5E1
  5
5E2
331
2CC
  5
2D5
331
621
  5
622
331
659
  5
65A
331
2D7
  5
2D9
331
4AF
  5
4B0
331
2C2
  5
2C1
331
2E2
  5
2F2
331
617
  5
61D
331
5E2
  5
5E3
331
622
  5
623
331
65A
  5
65B
331
2D8
  5
2DA
331
4B0
  5
4B1
331
63D
  5
63F
331
2C3
  5
2C2
331
5D8
  5
5D9
331
5E3
  5
5E4
331
623
  5
63A
331
65B
  5
65D
331
2D9
  5
2DB
331
4B1
  5
4B2
331
5D9
  5
5DA
331
651
  5
652
331
2CF
  5
2D6
331
5E4
  5
5E5
331
2BA
  5
2BC
331
5D7
  5
5D8
331
2DA
  5
2DC
331
4B2
  5
4B3
331
63F
  5
640
331
5DA
  5
5DB
331
2C5
  5
2C8
331
652
  5
653
331
5E5
  5
5E6
331
2BB
  5
2BD
331
2DB
  5
2DD
331
4B3
  5
4B4
331
640
  5
641
331
5DB
  5
5DC
331
4BE
  5
4BF
331
653
  5
654
331
5E6
  5
5E7
  0
LAYOUT
  5
D3
102
{ACAD_REACTORS
330
1A
102
}
330
1A
100
AcDbPlotSettings
  1

  2
C:\Documents and Settings\basas\Application Data\Autodesk\AutoCAD 2005\R16.1\enu\plotters\Default Windows System Printer.pc3
  4

  6

 40
0.0
 41
0.0
 42
0.0
 43
0.0
 44
0.0
 45
0.0
 46
0.0
 47
0.0
 48
0.0
 49
0.0
140
0.0
141
0.0
142
1.0
143
1.0
 70
   688
 72
     0
 73
     0
 74
     5
  7

 75
    16
147
1.0
 76
     0
 77
     2
 78
   300
148
0.0
149
0.0
100
AcDbLayout
  1
Layout1
 70
     1
 71
     1
 10
0.0
 20
0.0
 11
12.0
 21
9.0
 12
0.0
 22
0.0
 32
0.0
 14
0.0
 24
0.0
 34
0.0
 15
0.0
 25
0.0
 35
0.0
146
0.0
 13
0.0
 23
0.0
 33
0.0
 16
1.0
 26
0.0
 36
0.0
 17
0.0
 27
1.0
 37
0.0
 76
     0
330
D2
  0
LAYOUT
  5
D7
102
{ACAD_REACTORS
330
1A
102
}
330
1A
100
AcDbPlotSettings
  1

  2
C:\Documents and Settings\basas\Application Data\Autodesk\AutoCAD 2005\R16.1\enu\plotters\Default Windows System Printer.pc3
  4

  6

 40
0.0
 41
0.0
 42
0.0
 43
0.0
 44
0.0
 45
0.0
 46
0.0
 47
0.0
 48
0.0
 49
0.0
140
0.0
141
0.0
142
1.0
143
1.0
 70
   688
 72
     0
 73
     0
 74
     5
  7

 75
    16
147
1.0
 76
     0
 77
     2
 78
   300
148
0.0
149
0.0
100
AcDbLayout
  1
Layout2
 70
     1
 71
     2
 10
0.0
 20
0.0
 11
12.0
 21
9.0
 12
0.0
 22
0.0
 32
0.0
 14
0.0
 24
0.0
 34
0.0
 15
0.0
 25
0.0
 35
0.0
146
0.0
 13
0.0
 23
0.0
 33
0.0
 16
1.0
 26
0.0
 36
0.0
 17
0.0
 27
1.0
 37
0.0
 76
     0
330
D6
  0
LAYOUT
  5
22
102
{ACAD_REACTORS
330
1A
102
}
330
1A
100
AcDbPlotSettings
  1

  2
none_device
  4
ISO_A4_(210.00_x_297.00_MM)
  6

 40
7.5
 41
20.0
 42
7.5
 43
20.0
 44
210.0
 45
297.0
 46
11.54999923706054
 47
-13.65000009536743
 48
0.0
 49
0.0
140
0.0
141
0.0
142
1.0
143
8.704084754739808
 70
 11952
 72
     1
 73
     0
 74
     0
  7

 75
     0
147
0.1148885871608098
 76
     0
 77
     2
 78
   300
148
0.0
149
0.0
100
AcDbLayout
  1
Model
 70
     1
 71
     0
 10
0.0
 20
0.0
 11
12.0
 21
9.0
 12
0.0
 22
0.0
 32
0.0
 14
0.0
 24
0.0
 34
0.0
 15
0.0
 25
0.0
 35
0.0
146
0.0
 13
0.0
 23
0.0
 33
0.0
 16
1.0
 26
0.0
 36
0.0
 17
0.0
 27
1.0
 37
0.0
 76
     0
330
1F
331
EA
1001
ACAD_PSEXT
1000
None
1000
None
1000
Not applicable
1000
The layout will not be plotted unless a new plotter configuration name is selected.
1070
     0
  0
MATERIAL
  5
ED
102
{ACAD_REACTORS
330
6A
102
}
330
6A
100
AcDbMaterial
  1
ByBlock
  0
MATERIAL
  5
EC
102
{ACAD_REACTORS
330
6A
102
}
330
6A
100
AcDbMaterial
  1
ByLayer
  0
MATERIAL
  5
EE
102
{ACAD_REACTORS
330
6A
102
}
330
6A
100
AcDbMaterial
  1
Global
  0
MLINESTYLE
  5
18
102
{ACAD_REACTORS
330
17
102
}
330
17
100
AcDbMlineStyle
  2
STANDARD
 70
     0
  3

 62
   256
 51
90.0
 52
90.0
 71
     2
 49
0.5
 62
   256
  6
BYLAYER
 49
-0.5
 62
   256
  6
BYLAYER
  0
ACDBPLACEHOLDER
  5
F
102
{ACAD_REACTORS
330
E
102
}
330
E
  0
TABLESTYLE
  5
7F
102
{ACAD_REACTORS
330
7E
102
}
330
7E
100
AcDbTableStyle
  3
Standard
 70
     0
 71
     0
 40
1.5
 41
1.5
280
     0
281
     0
  7
Standard
140
4.5
170
     2
 62
     0
 63
     7
283
     0
 90
      512
 91
        0
  1

274
    -2
284
     1
 64
     0
275
    -2
285
     1
 65
     0
276
    -2
286
     1
 66
     0
277
    -2
287
     1
 67
     0
278
    -2
288
     1
 68
     0
279
    -2
289
     1
 69
     0
  7
Standard
140
6.0
170
     5
 62
     0
 63
     7
283
     0
 90
      512
 91
        0
  1

274
    -2
284
     1
 64
     0
275
    -2
285
     1
 65
     0
276
    -2
286
     1
 66
     0
277
    -2
287
     1
 67
     0
278
    -2
288
     1
 68
     0
279
    -2
289
     1
 69
     0
  7
Standard
140
4.5
170
     5
 62
     0
 63
     7
283
     0
 90
      512
 91
        0
  1

274
    -2
284
     1
 64
     0
275
    -2
285
     1
 65
     0
276
    -2
286
     1
 66
     0
277
    -2
287
     1
 67
     0
278
    -2
288
     1
 68
     0
279
    -2
289
     1
 69
     0
  0
VISUALSTYLE
  5
F5
102
{ACAD_REACTORS
330
EF
102
}
330
EF
100
AcDbVisualStyle
  2
2dWireframe
 70
     4
 71
     0
 72
     2
 73
     1
 90
        0
 40
-0.6
 41
-30.0
 62
     5
 63
     7
421
 16777215
 74
     1
 91
        4
 64
     7
 65
   257
 75
     1
175
     1
 42
1.0
 92
        0
 66
   257
 43
1.0
 76
     1
 77
     6
 78
     2
 67
     7
 79
     5
170
     0
171
     0
290
     0
174
     0
 93
        1
 44
0.0
173
     0
291
     0
 45
0.0
  0
VISUALSTYLE
  5
F7
102
{ACAD_REACTORS
330
EF
102
}
330
EF
100
AcDbVisualStyle
  2
3D Hidden
 70
     6
 71
     1
 72
     2
 73
     2
 90
        0
 40
-0.6
 41
-30.0
 62
     5
 63
     7
421
 16777215
 74
     2
 91
        2
 64
     7
 65
   257
 75
     2
175
     1
 42
40.0
 92
        0
 66
   257
 43
1.0
 76
     1
 77
     6
 78
     2
 67
     7
 79
     3
170
     0
171
     0
290
     0
174
     0
 93
        1
 44
0.0
173
     0
291
     0
 45
0.0
  0
VISUALSTYLE
  5
F6
102
{ACAD_REACTORS
330
EF
102
}
330
EF
100
AcDbVisualStyle
  2
3dWireframe
 70
     5
 71
     0
 72
     2
 73
     1
 90
        0
 40
-0.6
 41
-30.0
 62
     5
 63
     7
421
 16777215
 74
     1
 91
        4
 64
     7
 65
   257
 75
     1
175
     1
 42
1.0
 92
        0
 66
   257
 43
1.0
 76
     1
 77
     6
 78
     2
 67
     7
 79
     5
170
     0
171
     0
290
     0
174
     0
 93
        1
 44
0.0
173
     0
291
     0
 45
0.0
  0
VISUALSTYLE
  5
F4
102
{ACAD_REACTORS
330
EF
102
}
330
EF
100
AcDbVisualStyle
  2
Basic
 70
     7
 71
     1
 72
     0
 73
     1
 90
        0
 40
-0.6
 41
-30.0
 62
     5
 63
     7
421
 16777215
 74
     0
 91
        4
 64
     7
 65
   257
 75
     1
175
     1
 42
1.0
 92
        8
 66
     7
 43
1.0
 76
     1
 77
     6
 78
     2
 67
     7
 79
     5
170
     0
171
     0
290
     0
174
     0
 93
        1
 44
0.0
173
     0
291
     1
 45
0.0
  0
VISUALSTYLE
  5
FB
102
{ACAD_REACTORS
330
EF
102
}
330
EF
100
AcDbVisualStyle
  2
Brighten
 70
    12
 71
     2
 72
     2
 73
     1
 90
        0
 40
-0.6
 41
-30.0
 62
     5
 63
     7
421
 16777215
 74
     1
 91
        4
 64
     7
 65
   257
 75
     1
175
     1
 42
1.0
 92
        8
 66
     7
 43
1.0
 76
     1
 77
     6
 78
     2
 67
     7
 79
     5
170
     0
171
     0
290
     0
174
     0
 93
        1
 44
50.0
173
     0
291
     1
 45
0.0
  0
VISUALSTYLE
  5
FF
102
{ACAD_REACTORS
330
EF
102
}
330
EF
100
AcDbVisualStyle
  2
ColorChange
 70
    16
 71
     2
 72
     2
 73
     3
 90
        0
 40
-0.6
 41
-30.0
 62
     5
 63
     8
421
  8421504
 74
     1
 91
        4
 64
     7
 65
   257
 75
     1
175
     1
 42
1.0
 92
        8
 66
     8
424
  8421504
 43
1.0
 76
     1
 77
     6
 78
     2
 67
     7
 79
     5
170
     0
171
     0
290
     0
174
     0
 93
        1
 44
0.0
173
     0
291
     1
 45
0.0
  0
VISUALSTYLE
  5
F8
102
{ACAD_REACTORS
330
EF
102
}
330
EF
100
AcDbVisualStyle
  2
Conceptual
 70
     9
 71
     3
 72
     2
 73
     1
 90
        0
 40
-0.6
 41
-30.0
 62
     5
 63
     7
421
 16777215
 74
     2
 91
        2
 64
     7
 65
   257
 75
     1
175
     1
 42
40.0
 92
        8
 66
     7
 43
1.0
 76
     1
 77
     6
 78
     2
 67
     7
 79
     3
170
     0
171
     0
290
     0
174
     0
 93
        1
 44
0.0
173
     0
291
     0
 45
0.0
  0
VISUALSTYLE
  5
FA
102
{ACAD_REACTORS
330
EF
102
}
330
EF
100
AcDbVisualStyle
  2
Dim
 70
    11
 71
     2
 72
     2
 73
     1
 90
        0
 40
-0.6
 41
-30.0
 62
     5
 63
     7
421
 16777215
 74
     1
 91
        4
 64
     7
 65
   257
 75
     1
175
     1
 42
1.0
 92
        8
 66
     7
 43
1.0
 76
     1
 77
     6
 78
     2
 67
     7
 79
     5
170
     0
171
     0
290
     0
174
     0
 93
        1
 44
-50.0
173
     0
291
     1
 45
0.0
  0
VISUALSTYLE
  5
FE
102
{ACAD_REACTORS
330
EF
102
}
330
EF
100
AcDbVisualStyle
  2
Facepattern
 70
    15
 71
     2
 72
     2
 73
     1
 90
        0
 40
-0.6
 41
-30.0
 62
     5
 63
     7
421
 16777215
 74
     1
 91
        4
 64
     7
 65
   257
 75
     1
175
     1
 42
1.0
 92
        8
 66
     7
 43
1.0
 76
     1
 77
     6
 78
     2
 67
     7
 79
     5
170
     0
171
     0
290
     0
174
     0
 93
        1
 44
0.0
173
     0
291
     1
 45
0.0
  0
VISUALSTYLE
  5
F0
102
{ACAD_REACTORS
330
EF
102
}
330
EF
100
AcDbVisualStyle
  2
Flat
 70
     0
 71
     2
 72
     1
 73
     1
 90
        2
 40
-0.6
 41
30.0
 62
     5
 63
     7
421
 16777215
 74
     0
 91
        4
 64
     7
 65
   257
 75
     1
175
     1
 42
1.0
 92
        8
 66
     7
 43
1.0
 76
     1
 77
     6
 78
     2
 67
     7
 79
     5
170
     0
171
     0
290
     0
174
     0
 93
        1
 44
0.0
173
     0
291
     1
 45
0.0
  0
VISUALSTYLE
  5
F1
102
{ACAD_REACTORS
330
EF
102
}
330
EF
100
AcDbVisualStyle
  2
FlatWithEdges
 70
     1
 71
     2
 72
     1
 73
     1
 90
        2
 40
-0.6
 41
30.0
 62
     5
 63
     7
421
 16777215
 74
     1
 91
        4
 64
     7
 65
   257
 75
     1
175
     1
 42
1.0
 92
        0
 66
   257
 43
1.0
 76
     1
 77
     6
 78
     2
 67
     7
 79
     5
170
     0
171
     0
290
     0
174
     0
 93
        1
 44
0.0
173
     0
291
     1
 45
0.0
  0
VISUALSTYLE
  5
F2
102
{ACAD_REACTORS
330
EF
102
}
330
EF
100
AcDbVisualStyle
  2
Gouraud
 70
     2
 71
     2
 72
     2
 73
     1
 90
        2
 40
-0.6
 41
30.0
 62
     5
 63
     7
421
 16777215
 74
     0
 91
        4
 64
     7
 65
   257
 75
     1
175
     1
 42
1.0
 92
        0
 66
     7
 43
1.0
 76
     1
 77
     6
 78
     2
 67
     7
 79
     5
170
     0
171
     0
290
     0
174
     0
 93
        1
 44
0.0
173
     0
291
     1
 45
0.0
  0
VISUALSTYLE
  5
F3
102
{ACAD_REACTORS
330
EF
102
}
330
EF
100
AcDbVisualStyle
  2
GouraudWithEdges
 70
     3
 71
     2
 72
     2
 73
     1
 90
        2
 40
-0.6
 41
30.0
 62
     5
 63
     7
421
 16777215
 74
     1
 91
        4
 64
     7
 65
   257
 75
     1
175
     1
 42
1.0
 92
        0
 66
   257
 43
1.0
 76
     1
 77
     6
 78
     2
 67
     7
 79
     5
170
     0
171
     0
290
     0
174
     0
 93
        1
 44
0.0
173
     0
291
     1
 45
0.0
  0
VISUALSTYLE
  5
FD
102
{ACAD_REACTORS
330
EF
102
}
330
EF
100
AcDbVisualStyle
  2
Linepattern
 70
    14
 71
     2
 72
     2
 73
     1
 90
        0
 40
-0.6
 41
-30.0
 62
     5
 63
     7
421
 16777215
 74
     1
 91
        4
 64
     7
 65
   257
 75
     7
175
     7
 42
1.0
 92
        8
 66
     7
 43
1.0
 76
     1
 77
     6
 78
     2
 67
     7
 79
     5
170
     0
171
     0
290
     0
174
     0
 93
        1
 44
0.0
173
     0
291
     1
 45
0.0
  0
VISUALSTYLE
  5
F9
102
{ACAD_REACTORS
330
EF
102
}
330
EF
100
AcDbVisualStyle
  2
Realistic
 70
     8
 71
     2
 72
     2
 73
     1
 90
        0
 40
-0.6
 41
-30.0
 62
     5
 63
     7
421
 16777215
 74
     1
 91
        0
 64
     7
 65
   257
 75
     1
175
     1
 42
1.0
 92
        8
 66
     8
424
  7895160
 43
1.0
 76
     1
 77
     6
 78
     2
 67
     7
 79
     5
170
     0
171
     0
290
     0
174
     0
 93
       13
 44
0.0
173
     0
291
     0
 45
0.0
  0
VISUALSTYLE
  5
FC
102
{ACAD_REACTORS
330
EF
102
}
330
EF
100
AcDbVisualStyle
  2
Thicken
 70
    13
 71
     2
 72
     2
 73
     1
 90
        0
 40
-0.6
 41
-30.0
 62
     5
 63
     7
421
 16777215
 74
     1
 91
        4
 64
     7
 65
   257
 75
     1
175
     1
 42
1.0
 92
       12
 66
     7
 43
1.0
 76
     1
 77
     6
 78
     2
 67
     7
 79
     5
170
     0
171
     0
290
     0
174
     0
 93
        1
 44
0.0
173
     0
291
     1
 45
0.0
  0
DICTIONARYVAR
  5
84
102
{ACAD_REACTORS
330
5E
102
}
330
5E
100
DictionaryVariables
280
     0
  1
STANDARD
  0
DICTIONARYVAR
  5
5F
102
{ACAD_REACTORS
330
5E
102
}
330
5E
100
DictionaryVariables
280
     0
  1
2
  0
DICTIONARYVAR
  5
63
102
{ACAD_REACTORS
330
5E
102
}
330
5E
100
DictionaryVariables
280
     0
  1
1
  0
ENDSEC
  0
EOF
