  0
SECTION
  2
HEADER
  9
$ACADVER
  1
AC1021
  9
$ACADMAINTVER
 70
     1
  9
$DWGCODEPAGE
  3
ANSI_1250
  9
$LASTSAVEDBY
  1
Mac
  9
$INSBASE
 10
0.0
 20
0.0
 30
0.0
  9
$EXTMIN
 10
1269.546741049162
 20
-86.16260947291204
 30
0.0
  9
$EXTMAX
 10
1374.690610299928
 20
6.51554077798546
 30
0.0
  9
$LIMMIN
 10
0.0
 20
0.0
  9
$LIMMAX
 10
420.0
 20
297.0
  9
$ORTHOMODE
 70
     0
  9
$REGENMODE
 70
     1
  9
$FILLMODE
 70
     1
  9
$QTEXTMODE
 70
     0
  9
$MIRRTEXT
 70
     0
  9
$LTSCALE
 40
1.0
  9
$ATTMODE
 70
     1
  9
$TEXTSIZE
 40
2.5
  9
$TRACEWID
 40
1.0
  9
$TEXTSTYLE
  7
Standard
  9
$CLAYER
  8
0
  9
$CELTYPE
  6
ByLayer
  9
$CECOLOR
 62
   256
  9
$CELTSCALE
 40
1.0
  9
$DISPSILH
 70
     0
  9
$DIMSCALE
 40
1.0
  9
$DIMASZ
 40
2.5
  9
$DIMEXO
 40
0.625
  9
$DIMDLI
 40
3.75
  9
$DIMRND
 40
0.0
  9
$DIMDLE
 40
0.0
  9
$DIMEXE
 40
1.25
  9
$DIMTP
 40
0.0
  9
$DIMTM
 40
0.0
  9
$DIMTXT
 40
2.5
  9
$DIMCEN
 40
2.5
  9
$DIMTSZ
 40
0.0
  9
$DIMTOL
 70
     0
  9
$DIMLIM
 70
     0
  9
$DIMTIH
 70
     0
  9
$DIMTOH
 70
     0
  9
$DIMSE1
 70
     0
  9
$DIMSE2
 70
     0
  9
$DIMTAD
 70
     1
  9
$DIMZIN
 70
     8
  9
$DIMBLK
  1

  9
$DIMASO
 70
     1
  9
$DIMSHO
 70
     1
  9
$DIMPOST
  1

  9
$DIMAPOST
  1

  9
$DIMALT
 70
     0
  9
$DIMALTD
 70
     3
  9
$DIMALTF
 40
0.03937007874016
  9
$DIMLFAC
 40
1.0
  9
$DIMTOFL
 70
     1
  9
$DIMTVP
 40
0.0
  9
$DIMTIX
 70
     0
  9
$DIMSOXD
 70
     0
  9
$DIMSAH
 70
     0
  9
$DIMBLK1
  1

  9
$DIMBLK2
  1

  9
$DIMSTYLE
  2
ISO-25
  9
$DIMCLRD
 70
     0
  9
$DIMCLRE
 70
     0
  9
$DIMCLRT
 70
     0
  9
$DIMTFAC
 40
1.0
  9
$DIMGAP
 40
0.625
  9
$DIMJUST
 70
     0
  9
$DIMSD1
 70
     0
  9
$DIMSD2
 70
     0
  9
$DIMTOLJ
 70
     0
  9
$DIMTZIN
 70
     8
  9
$DIMALTZ
 70
     0
  9
$DIMALTTZ
 70
     0
  9
$DIMUPT
 70
     0
  9
$DIMDEC
 70
     2
  9
$DIMTDEC
 70
     2
  9
$DIMALTU
 70
     2
  9
$DIMALTTD
 70
     3
  9
$DIMTXSTY
  7
Standard
  9
$DIMAUNIT
 70
     0
  9
$DIMADEC
 70
     0
  9
$DIMALTRND
 40
0.0
  9
$DIMAZIN
 70
     0
  9
$DIMDSEP
 70
    44
  9
$DIMATFIT
 70
     3
  9
$DIMFRAC
 70
     0
  9
$DIMLDRBLK
  1

  9
$DIMLUNIT
 70
     2
  9
$DIMLWD
 70
    -2
  9
$DIMLWE
 70
    -2
  9
$DIMTMOVE
 70
     0
  9
$DIMFXL
 40
1.0
  9
$DIMFXLON
 70
     0
  9
$DIMJOGANG
 40
0.7853981633974483
  9
$DIMTFILL
 70
     0
  9
$DIMTFILLCLR
 70
     0
  9
$DIMARCSYM
 70
     0
  9
$DIMLTYPE
  6

  9
$DIMLTEX1
  6

  9
$DIMLTEX2
  6

  9
$LUNITS
 70
     2
  9
$LUPREC
 70
     4
  9
$SKETCHINC
 40
1.0
  9
$FILLETRAD
 40
1.0
  9
$AUNITS
 70
     0
  9
$AUPREC
 70
     0
  9
$MENU
  1
.
  9
$ELEVATION
 40
0.0
  9
$PELEVATION
 40
0.0
  9
$THICKNESS
 40
0.0
  9
$LIMCHECK
 70
     0
  9
$CHAMFERA
 40
0.0
  9
$CHAMFERB
 40
0.0
  9
$CHAMFERC
 40
0.0
  9
$CHAMFERD
 40
0.0
  9
$SKPOLY
 70
     0
  9
$TDCREATE
 40
2456029.634352188
  9
$TDUCREATE
 40
2456029.551018854
  9
$TDUPDATE
 40
2456055.637671933
  9
$TDUUPDATE
 40
2456055.554338600
  9
$TDINDWG
 40
0.3884310995
  9
$TDUSRTIMER
 40
0.3884300231
  9
$USRTIMER
 70
     1
  9
$ANGBASE
 50
0.0
  9
$ANGDIR
 70
     0
  9
$PDMODE
 70
     0
  9
$PDSIZE
 40
0.0
  9
$PLINEWID
 40
0.0
  9
$SPLFRAME
 70
     0
  9
$SPLINETYPE
 70
     6
  9
$SPLINESEGS
 70
     8
  9
$HANDSEED
  5
E1D
  9
$SURFTAB1
 70
     6
  9
$SURFTAB2
 70
     6
  9
$SURFTYPE
 70
     6
  9
$SURFU
 70
     6
  9
$SURFV
 70
     6
  9
$UCSBASE
  2

  9
$UCSNAME
  2

  9
$UCSORG
 10
0.0
 20
0.0
 30
0.0
  9
$UCSXDIR
 10
1.0
 20
0.0
 30
0.0
  9
$UCSYDIR
 10
0.0
 20
1.0
 30
0.0
  9
$UCSORTHOREF
  2

  9
$UCSORTHOVIEW
 70
     0
  9
$UCSORGTOP
 10
0.0
 20
0.0
 30
0.0
  9
$UCSORGBOTTOM
 10
0.0
 20
0.0
 30
0.0
  9
$UCSORGLEFT
 10
0.0
 20
0.0
 30
0.0
  9
$UCSORGRIGHT
 10
0.0
 20
0.0
 30
0.0
  9
$UCSORGFRONT
 10
0.0
 20
0.0
 30
0.0
  9
$UCSORGBACK
 10
0.0
 20
0.0
 30
0.0
  9
$PUCSBASE
  2

  9
$PUCSNAME
  2

  9
$PUCSORG
 10
0.0
 20
0.0
 30
0.0
  9
$PUCSXDIR
 10
1.0
 20
0.0
 30
0.0
  9
$PUCSYDIR
 10
0.0
 20
1.0
 30
0.0
  9
$PUCSORTHOREF
  2

  9
$PUCSORTHOVIEW
 70
     0
  9
$PUCSORGTOP
 10
0.0
 20
0.0
 30
0.0
  9
$PUCSORGBOTTOM
 10
0.0
 20
0.0
 30
0.0
  9
$PUCSORGLEFT
 10
0.0
 20
0.0
 30
0.0
  9
$PUCSORGRIGHT
 10
0.0
 20
0.0
 30
0.0
  9
$PUCSORGFRONT
 10
0.0
 20
0.0
 30
0.0
  9
$PUCSORGBACK
 10
0.0
 20
0.0
 30
0.0
  9
$USERI1
 70
     0
  9
$USERI2
 70
     0
  9
$USERI3
 70
     0
  9
$USERI4
 70
     0
  9
$USERI5
 70
     0
  9
$USERR1
 40
0.0
  9
$USERR2
 40
0.0
  9
$USERR3
 40
0.0
  9
$USERR4
 40
0.0
  9
$USERR5
 40
0.0
  9
$WORLDVIEW
 70
     1
  9
$SHADEDGE
 70
     3
  9
$SHADEDIF
 70
    70
  9
$TILEMODE
 70
     1
  9
$MAXACTVP
 70
    64
  9
$PINSBASE
 10
0.0
 20
0.0
 30
0.0
  9
$PLIMCHECK
 70
     0
  9
$PEXTMIN
 10
0.0
 20
0.0
 30
0.0
  9
$PEXTMAX
 10
0.0
 20
0.0
 30
0.0
  9
$PLIMMIN
 10
0.0
 20
0.0
  9
$PLIMMAX
 10
12.0
 20
9.0
  9
$UNITMODE
 70
     0
  9
$VISRETAIN
 70
     1
  9
$PLINEGEN
 70
     0
  9
$PSLTSCALE
 70
     1
  9
$TREEDEPTH
 70
  3020
  9
$CMLSTYLE
  2
Standard
  9
$CMLJUST
 70
     0
  9
$CMLSCALE
 40
20.0
  9
$PROXYGRAPHICS
 70
     1
  9
$MEASUREMENT
 70
     1
  9
$CELWEIGHT
370
    -1
  9
$ENDCAPS
280
     0
  9
$JOINSTYLE
280
     0
  9
$LWDISPLAY
290
     0
  9
$INSUNITS
 70
     4
  9
$HYPERLINKBASE
  1

  9
$STYLESHEET
  1

  9
$XEDIT
290
     1
  9
$CEPSNTYPE
380
     0
  9
$PSTYLEMODE
290
     1
  9
$FINGERPRINTGUID
  2
{B071651E-9989-467C-9F95-F914F88EA5D6}
  9
$VERSIONGUID
  2
{45A10668-3218-4E9B-8D2C-5FEEE2E5B17C}
  9
$EXTNAMES
290
     1
  9
$PSVPSCALE
 40
0.0
  9
$OLESTARTUP
290
     0
  9
$SORTENTS
280
   127
  9
$INDEXCTL
280
     0
  9
$HIDETEXT
280
     1
  9
$XCLIPFRAME
290
     0
  9
$HALOGAP
280
     0
  9
$OBSCOLOR
 70
   257
  9
$OBSLTYPE
280
     0
  9
$INTERSECTIONDISPLAY
280
     0
  9
$INTERSECTIONCOLOR
 70
   257
  9
$DIMASSOC
280
     2
  9
$PROJECTNAME
  1

  9
$CAMERADISPLAY
290
     0
  9
$LENSLENGTH
 40
50.0
  9
$CAMERAHEIGHT
 40
0.0
  9
$STEPSPERSEC
 40
2.0
  9
$STEPSIZE
 40
6.0
  9
$3DDWFPREC
 40
2.0
  9
$PSOLWIDTH
 40
5.0
  9
$PSOLHEIGHT
 40
80.0
  9
$LOFTANG1
 40
1.570796326794896
  9
$LOFTANG2
 40
1.570796326794896
  9
$LOFTMAG1
 40
0.0
  9
$LOFTMAG2
 40
0.0
  9
$LOFTPARAM
 70
     7
  9
$LOFTNORMALS
280
     1
  9
$LATITUDE
 40
37.795
  9
$LONGITUDE
 40
-122.394
  9
$NORTHDIRECTION
 40
0.0
  9
$TIMEZONE
 70
 -8000
  9
$LIGHTGLYPHDISPLAY
280
     1
  9
$TILEMODELIGHTSYNCH
280
     1
  9
$CMATERIAL
347
EC
  9
$SOLIDHIST
280
     1
  9
$SHOWHIST
280
     1
  9
$DWFFRAME
280
     2
  9
$DGNFRAME
280
     0
  9
$REALWORLDSCALE
290
     1
  9
$INTERFERECOLOR
 62
     1
  9
$INTERFEREOBJVS
345
F9
  9
$INTERFEREVPVS
346
F6
  9
$CSHADOW
280
     0
  9
$SHADOWPLANELOCATION
 40
0.0
  0
ENDSEC
  0
SECTION
  2
CLASSES
  0
CLASS
  1
ACDBDICTIONARYWDFLT
  2
AcDbDictionaryWithDefault
  3
ObjectDBX Classes
 90
        0
 91
        1
280
     0
281
     0
  0
CLASS
  1
DICTIONARYVAR
  2
AcDbDictionaryVar
  3
ObjectDBX Classes
 90
        0
 91
        3
280
     0
281
     0
  0
CLASS
  1
TABLESTYLE
  2
AcDbTableStyle
  3
ObjectDBX Classes
 90
     4095
 91
        1
280
     0
281
     0
  0
CLASS
  1
MATERIAL
  2
AcDbMaterial
  3
ObjectDBX Classes
 90
     1024
 91
        3
280
     0
281
     0
  0
CLASS
  1
VISUALSTYLE
  2
AcDbVisualStyle
  3
ObjectDBX Classes
 90
     4095
 91
       16
280
     0
281
     0
  0
CLASS
  1
DIMASSOC
  2
AcDbDimAssoc
  3
"AcDbDimAssoc|Product Desc:     AcDim ARX App For Dimension|Company:          Autodesk, Inc.|WEB Address:      www.autodesk.com"
 90
        0
 91
        0
280
     0
281
     0
  0
CLASS
  1
SORTENTSTABLE
  2
AcDbSortentsTable
  3
ObjectDBX Classes
 90
        0
 91
        1
280
     0
281
     0
  0
ENDSEC
  0
SECTION
  2
TABLES
  0
TABLE
  2
VPORT
  5
8
330
0
100
AcDbSymbolTable
 70
     1
  0
VPORT
  5
EA
330
8
100
AcDbSymbolTableRecord
100
AcDbViewportTableRecord
  2
*Active
 70
     0
 10
0.0
 20
0.0
 11
1.0
 21
1.0
 12
1316.116319619075
 22
-29.66459568865886
 13
0.0
 23
0.0
 14
10.0
 24
10.0
 15
10.0
 25
10.0
 16
0.0
 26
0.0
 36
1.0
 17
0.0
 27
0.0
 37
0.0
 40
89.11093893118726
 41
1.332496863237139
 42
50.0
 43
0.0
 44
0.0
 50
0.0
 51
0.0
 71
     0
 72
  1000
 73
     1
 74
     3
 75
     0
 76
     0
 77
     0
 78
     0
281
     0
 65
     1
110
0.0
120
0.0
130
0.0
111
1.0
121
0.0
131
0.0
112
0.0
122
1.0
132
0.0
 79
     0
146
0.0
348
F5
 60
     2
 61
     5
292
     1
282
     1
141
0.0
142
0.0
 63
   250
421
  3355443
  0
ENDTAB
  0
TABLE
  2
LTYPE
  5
5
330
0
100
AcDbSymbolTable
 70
     2
  0
LTYPE
  5
14
330
5
100
AcDbSymbolTableRecord
100
AcDbLinetypeTableRecord
  2
ByBlock
 70
     0
  3

 72
    65
 73
     0
 40
0.0
  0
LTYPE
  5
15
330
5
100
AcDbSymbolTableRecord
100
AcDbLinetypeTableRecord
  2
ByLayer
 70
     0
  3

 72
    65
 73
     0
 40
0.0
  0
LTYPE
  5
16
330
5
100
AcDbSymbolTableRecord
100
AcDbLinetypeTableRecord
  2
Continuous
 70
     0
  3
Solid line
 72
    65
 73
     0
 40
0.0
  0
ENDTAB
  0
TABLE
  2
LAYER
  5
2
102
{ACAD_XDICTIONARY
360
D7F
102
}
330
0
100
AcDbSymbolTable
 70
     2
  0
LAYER
  5
10
330
2
100
AcDbSymbolTableRecord
100
AcDbLayerTableRecord
  2
0
 70
     0
 62
     7
  6
Continuous
370
    -3
390
F
347
EE
  0
LAYER
  5
11C
330
2
100
AcDbSymbolTableRecord
100
AcDbLayerTableRecord
  2
Defpoints
 70
     0
 62
     7
  6
Continuous
290
     0
370
    -3
390
F
347
EE
  0
ENDTAB
  0
TABLE
  2
STYLE
  5
3
330
0
100
AcDbSymbolTable
 70
     1
  0
STYLE
  5
11
330
3
100
AcDbSymbolTableRecord
100
AcDbTextStyleTableRecord
  2
Standard
 70
     0
 40
0.0
 41
1.0
 50
0.0
 71
     0
 42
2.5
  3
txt
  4

  0
ENDTAB
  0
TABLE
  2
VIEW
  5
6
330
0
100
AcDbSymbolTable
 70
     0
  0
ENDTAB
  0
TABLE
  2
UCS
  5
7
330
0
100
AcDbSymbolTable
 70
     0
  0
ENDTAB
  0
TABLE
  2
APPID
  5
9
330
0
100
AcDbSymbolTable
 70
     3
  0
APPID
  5
12
330
9
100
AcDbSymbolTableRecord
100
AcDbRegAppTableRecord
  2
ACAD
 70
     0
  0
APPID
  5
9E
330
9
100
AcDbSymbolTableRecord
100
AcDbRegAppTableRecord
  2
ACAD_PSEXT
 70
     0
  0
APPID
  5
1BB
330
9
100
AcDbSymbolTableRecord
100
AcDbRegAppTableRecord
  2
ACAD_EXEMPT_FROM_CAD_STANDARDS
 70
     0
  0
ENDTAB
  0
TABLE
  2
DIMSTYLE
  5
A
330
0
100
AcDbSymbolTable
 70
     2
100
AcDbDimStyleTable
 71
     1
340
27
  0
DIMSTYLE
105
27
330
A
100
AcDbSymbolTableRecord
100
AcDbDimStyleTableRecord
  2
ISO-25
 70
     0
 41
2.5
 42
0.625
 43
3.75
 44
1.25
 73
     0
 74
     0
 77
     1
 78
     8
140
2.5
141
2.5
143
0.03937007874016
147
0.625
171
     3
172
     1
271
     2
272
     2
274
     3
278
    44
283
     0
284
     8
340
11
  0
ENDTAB
  0
TABLE
  2
BLOCK_RECORD
  5
1
330
0
100
AcDbSymbolTable
 70
     3
  0
BLOCK_RECORD
  5
1F
102
{ACAD_XDICTIONARY
360
145
102
}
330
1
100
AcDbSymbolTableRecord
100
AcDbBlockTableRecord
  2
*Model_Space
340
22
 70
     0
280
     1
281
     0
  0
BLOCK_RECORD
  5
D6
330
1
100
AcDbSymbolTableRecord
100
AcDbBlockTableRecord
  2
*Paper_Space
340
D7
 70
     0
280
     1
281
     0
  0
ENDTAB
  0
ENDSEC
  0
SECTION
  2
BLOCKS
  0
BLOCK
  5
20
330
1F
100
AcDbEntity
  8
0
100
AcDbBlockBegin
  2
*Model_Space
 70
     0
 10
0.0
 20
0.0
 30
0.0
  3
*Model_Space
  1

  0
ENDBLK
  5
21
330
1F
100
AcDbEntity
  8
0
100
AcDbBlockEnd
  0
BLOCK
  5
D8
330
D6
100
AcDbEntity
 67
     1
  8
0
100
AcDbBlockBegin
  2
*Paper_Space
 70
     0
 10
0.0
 20
0.0
 30
0.0
  3
*Paper_Space
  1

  0
ENDBLK
  5
D9
330
D6
100
AcDbEntity
 67
     1
  8
0
100
AcDbBlockEnd
  0
ENDSEC
  0
SECTION
  2
ENTITIES
  0
ARC
  5
A66
330
1F
100
AcDbEntity
  8
0
100
AcDbCircle
 10
1302.18765705419
 20
5.59688548313553
 30
0.0
 40
0.9189467264058112
100
AcDbArc
 50
91.44301959803485
 51
178.5569804019895
  0
ARC
  5
A68
330
1F
100
AcDbEntity
  8
0
100
AcDbCircle
 10
1270.9204580857
 20
-24.52885622449506
 30
0.0
 40
0.955639696887937
100
AcDbArc
 50
179.49786417521
 51
270.5021358247892
  0
ARC
  5
A6A
330
1F
100
AcDbEntity
  8
0
100
AcDbCircle
 10
1270.648087215895
 20
-12.16769134973511
 30
0.0
 40
0.683269001547442
100
AcDbArc
 50
90.59525471997741
 51
179.4047452800144
  0
LWPOLYLINE
  5
A6B
330
1F
100
AcDbEntity
  8
0
100
AcDbPolyline
 90
        4
 70
     0
 43
0.0
 10
1277.550249853957
 20
-11.48445922201723
 10
1277.550249853957
 20
5.515540777982771
 42
-0.4142135623730951
 10
1278.550249853957
 20
6.515540777982806
 10
1283.673202231611
 20
6.515540777982984
  0
LINE
  5
A6D
330
1F
100
AcDbEntity
  8
0
100
AcDbLine
 10
1269.964855088177
 20
-24.52048117857069
 30
0.0
 11
1269.964855088177
 21
-12.16059289003736
 31
0.0
  0
LINE
  5
A6E
330
1F
100
AcDbEntity
  8
0
100
AcDbLine
 10
1270.640988756197
 20
-11.48445922201746
 30
0.0
 11
1277.550249853957
 21
-11.48445922201723
 31
0.0
  0
LINE
  5
A70
330
1F
100
AcDbEntity
  8
0
100
AcDbLine
 10
1290.269001759342
 20
-11.48445922201681
 30
0.0
 11
1301.269001759342
 21
-11.48445922201644
 31
0.0
  0
LINE
  5
A71
330
1F
100
AcDbEntity
  8
0
100
AcDbLine
 10
1301.269001759342
 20
-11.48445922201644
 30
0.0
 11
1301.269001759341
 21
5.620027117014188
 31
0.0
  0
LINE
  5
A72
330
1F
100
AcDbEntity
  8
0
100
AcDbLine
 10
1302.164515420311
 20
6.515540777984128
 30
0.0
 11
1318.269001759341
 21
6.515540777984121
 31
0.0
  0
LWPOLYLINE
  5
A75
330
1F
100
AcDbEntity
  8
0
100
AcDbPolyline
 90
        4
 70
     0
 43
0.0
 10
1286.469336259654
 20
6.515540777983076
 10
1289.269001759342
 20
6.515540777983169
 42
-0.4142135623730951
 10
1290.269001759341
 20
5.515540777983204
 10
1290.269001759342
 20
-11.48445922201681
  0
LINE
  5
A76
330
1F
100
AcDbEntity
  8
0
100
AcDbLine
 10
1286.469336259654
 20
6.515540777983076
 30
0.0
 11
1283.673202231611
 21
6.515540777982984
 31
0.0
  0
ARC
  5
A82
330
1F
100
AcDbEntity
  8
0
100
AcDbCircle
 10
1304.510401815529
 20
-26.5157443181143
 30
0.0
 40
2.0
100
AcDbArc
 50
31.04041346801736
 51
148.9595865319851
  0
ARC
  5
A8B
330
1F
100
AcDbEntity
  8
0
100
AcDbCircle
 10
1298.510401815528
 20
-26.5157443181145
 30
0.0
 40
2.0
100
AcDbArc
 50
31.04041346801736
 51
148.9595865319851
  0
ARC
  5
A8C
330
1F
100
AcDbEntity
  8
0
100
AcDbCircle
 10
1292.510401815528
 20
-26.5157443181147
 30
0.0
 40
2.0
100
AcDbArc
 50
31.04041346801736
 51
148.9595865319851
  0
ARC
  5
A8D
330
1F
100
AcDbEntity
  8
0
100
AcDbCircle
 10
1286.510401815529
 20
-26.5157443181149
 30
0.0
 40
2.0
100
AcDbArc
 50
31.04041346801736
 51
148.9595865319851
  0
ARC
  5
A8E
330
1F
100
AcDbEntity
  8
0
100
AcDbCircle
 10
1280.510401815529
 20
-26.5157443181151
 30
0.0
 40
2.0
100
AcDbArc
 50
31.04041346801736
 51
148.9595865319851
  0
LINE
  5
A8F
330
1F
100
AcDbEntity
  8
0
100
AcDbLine
 10
1317.219001759342
 20
-25.4844592220159
 30
0.0
 11
1306.224009428305
 21
-25.48445922201632
 31
0.0
  0
LINE
  5
A90
330
1F
100
AcDbEntity
  8
0
100
AcDbLine
 10
1302.796794202752
 20
-25.48445922201643
 30
0.0
 11
1300.224009428305
 21
-25.48445922201651
 31
0.0
  0
LINE
  5
A91
330
1F
100
AcDbEntity
  8
0
100
AcDbLine
 10
1296.796794202752
 20
-25.48445922201663
 30
0.0
 11
1294.224009428305
 21
-25.48445922201671
 31
0.0
  0
LINE
  5
A92
330
1F
100
AcDbEntity
  8
0
100
AcDbLine
 10
1290.796794202752
 20
-25.48445922201683
 30
0.0
 11
1288.224009428305
 21
-25.48445922201691
 31
0.0
  0
LINE
  5
A93
330
1F
100
AcDbEntity
  8
0
100
AcDbLine
 10
1284.796794202752
 20
-25.48445922201703
 30
0.0
 11
1282.224009428305
 21
-25.48445922201711
 31
0.0
  0
LINE
  5
A94
330
1F
100
AcDbEntity
  8
0
100
AcDbLine
 10
1278.796794202752
 20
-25.48445922201722
 30
0.0
 11
1270.928833131624
 21
-25.48445922201748
 31
0.0
  0
ARC
  5
A95
330
1F
100
AcDbEntity
  8
0
100
AcDbCircle
 10
1334.350346464493
 20
5.596885483136603
 30
0.0
 40
0.9189467264058112
100
AcDbArc
 50
1.443019598014532
 51
88.55698040196513
  0
ARC
  5
A96
330
1F
100
AcDbEntity
  8
0
100
AcDbCircle
 10
1365.617545432985
 20
-24.52885622449192
 30
0.0
 40
0.955639696887937
100
AcDbArc
 50
269.4978641752109
 51
0.5021358247940347
  0
ARC
  5
A97
330
1F
100
AcDbEntity
  8
0
100
AcDbCircle
 10
1365.889916302789
 20
-12.16769134973194
 30
0.0
 40
0.683269001547442
100
AcDbArc
 50
0.5952547199896281
 51
89.4047452800226
  0
LWPOLYLINE
  5
A98
330
1F
100
AcDbEntity
  8
0
100
AcDbPolyline
 90
        4
 70
     0
 43
0.0
 10
1358.987753664727
 20
-11.48445922201452
 10
1358.987753664726
 20
5.515540777985478
 42
0.4142135623730951
 10
1357.987753664726
 20
6.515540777985442
 10
1352.864801287072
 20
6.515540777985279
  0
LWPOLYLINE
  5
A99
330
1F
100
AcDbEntity
  8
0
100
AcDbPolyline
 90
        4
 70
     0
 43
0.0
 10
1350.068667259029
 20
6.515540777985187
 10
1347.269001759342
 20
6.515540777985094
 42
0.4142135623730951
 10
1346.269001759341
 20
5.515540777985059
 10
1346.269001759342
 20
-11.48445922201495
  0
LINE
  5
A9A
330
1F
100
AcDbEntity
  8
0
100
AcDbLine
 10
1366.573148430507
 20
-24.52048117856748
 30
0.0
 11
1366.573148430507
 21
-12.16059289003415
 31
0.0
  0
LINE
  5
A9B
330
1F
100
AcDbEntity
  8
0
100
AcDbLine
 10
1365.897014762487
 20
-11.48445922201431
 30
0.0
 11
1358.987753664727
 21
-11.48445922201452
 31
0.0
  0
LINE
  5
A9C
330
1F
100
AcDbEntity
  8
0
100
AcDbLine
 10
1346.269001759342
 20
-11.48445922201495
 30
0.0
 11
1335.269001759342
 21
-11.4844592220153
 31
0.0
  0
LINE
  5
A9D
330
1F
100
AcDbEntity
  8
0
100
AcDbLine
 10
1335.269001759342
 20
-11.4844592220153
 30
0.0
 11
1335.269001759341
 21
5.620027117015318
 31
0.0
  0
LINE
  5
A9E
330
1F
100
AcDbEntity
  8
0
100
AcDbLine
 10
1334.373488098372
 20
6.515540777985201
 30
0.0
 11
1318.269001759341
 21
6.515540777984121
 31
0.0
  0
LINE
  5
A9F
330
1F
100
AcDbEntity
  8
0
100
AcDbLine
 10
1350.068667259029
 20
6.515540777985187
 30
0.0
 11
1352.864801287072
 21
6.515540777985279
 31
0.0
  0
ARC
  5
AA0
330
1F
100
AcDbEntity
  8
0
100
AcDbCircle
 10
1332.027601703156
 20
-26.51574431811339
 30
0.0
 40
2.0
100
AcDbArc
 50
31.04041346802143
 51
148.9595865319815
  0
ARC
  5
AA1
330
1F
100
AcDbEntity
  8
0
100
AcDbCircle
 10
1338.027601703157
 20
-26.51574431811319
 30
0.0
 40
2.0
100
AcDbArc
 50
31.04041346802143
 51
148.9595865319815
  0
ARC
  5
AA2
330
1F
100
AcDbEntity
  8
0
100
AcDbCircle
 10
1344.027601703157
 20
-26.515744318113
 30
0.0
 40
2.0
100
AcDbArc
 50
31.04041346802143
 51
148.9595865319815
  0
ARC
  5
AA3
330
1F
100
AcDbEntity
  8
0
100
AcDbCircle
 10
1350.027601703156
 20
-26.5157443181128
 30
0.0
 40
2.0
100
AcDbArc
 50
31.04041346802143
 51
148.9595865319815
  0
ARC
  5
AA4
330
1F
100
AcDbEntity
  8
0
100
AcDbCircle
 10
1356.027601703156
 20
-26.5157443181126
 30
0.0
 40
2.0
100
AcDbArc
 50
31.04041346802143
 51
148.9595865319815
  0
LINE
  5
AA5
330
1F
100
AcDbEntity
  8
0
100
AcDbLine
 10
1319.319001759343
 20
-25.48445922201584
 30
0.0
 11
1330.31399409038
 21
-25.4844592220155
 31
0.0
  0
LINE
  5
AA6
330
1F
100
AcDbEntity
  8
0
100
AcDbLine
 10
1333.741209315933
 20
-25.4844592220154
 30
0.0
 11
1336.31399409038
 21
-25.48445922201532
 31
0.0
  0
LINE
  5
AA7
330
1F
100
AcDbEntity
  8
0
100
AcDbLine
 10
1339.741209315933
 20
-25.4844592220152
 30
0.0
 11
1342.31399409038
 21
-25.48445922201512
 31
0.0
  0
LINE
  5
AA8
330
1F
100
AcDbEntity
  8
0
100
AcDbLine
 10
1345.741209315933
 20
-25.48445922201501
 30
0.0
 11
1348.31399409038
 21
-25.48445922201491
 31
0.0
  0
LINE
  5
AA9
330
1F
100
AcDbEntity
  8
0
100
AcDbLine
 10
1351.741209315933
 20
-25.48445922201479
 30
0.0
 11
1354.31399409038
 21
-25.48445922201471
 31
0.0
  0
LINE
  5
AAA
330
1F
100
AcDbEntity
  8
0
100
AcDbLine
 10
1357.741209315933
 20
-25.48445922201459
 30
0.0
 11
1365.609170387061
 21
-25.48445922201434
 31
0.0
  0
CIRCLE
  5
AB0
330
1F
100
AcDbEntity
  8
0
100
AcDbCircle
 10
1283.763179197243
 20
-8.008029280467525
 30
0.0
 40
3.569370879139306
  0
CIRCLE
  5
AB3
330
1F
100
AcDbEntity
  8
0
100
AcDbCircle
 10
1309.769001759342
 20
-18.3405370343027
 30
0.0
 40
3.58142515774213
  0
CIRCLE
  5
AC1
330
1F
100
AcDbEntity
  8
0
100
AcDbCircle
 10
1299.769001759342
 20
-18.34053703430304
 30
0.0
 40
3.58142515774213
  0
CIRCLE
  5
AC2
330
1F
100
AcDbEntity
  8
0
100
AcDbCircle
 10
1289.769001759342
 20
-18.34053703430337
 30
0.0
 40
3.58142515774213
  0
CIRCLE
  5
AC3
330
1F
100
AcDbEntity
  8
0
100
AcDbCircle
 10
1279.769001759342
 20
-18.34053703430369
 30
0.0
 40
3.58142515774213
  0
CIRCLE
  5
ADC
330
1F
100
AcDbEntity
  8
0
100
AcDbCircle
 10
1283.754780777652
 20
0.9290535565977791
 30
0.0
 40
3.58142515774213
  0
CIRCLE
  5
AE5
330
1F
100
AcDbEntity
  8
0
100
AcDbCircle
 10
1309.769001759342
 20
-8.008029280466658
 30
0.0
 40
3.569370879139306
  0
CIRCLE
  5
AE6
330
1F
100
AcDbEntity
  8
0
100
AcDbCircle
 10
1309.760603339751
 20
0.9290535565986459
 30
0.0
 40
3.58142515774213
  0
CIRCLE
  5
B0D
330
1F
100
AcDbEntity
  8
0
100
AcDbCircle
 10
1273.09278955762
 20
-22.66568210102001
 30
0.0
 40
1.486408352995008
  0
CIRCLE
  5
B15
330
1F
100
AcDbEntity
  8
0
100
AcDbCircle
 10
1273.065263083809
 20
-14.30895096470611
 30
0.0
 40
1.486408352995008
  0
CIRCLE
  5
B16
330
1F
100
AcDbEntity
  8
0
100
AcDbCircle
 10
1352.774824321441
 20
-8.008029280465237
 30
0.0
 40
3.569370879139306
  0
CIRCLE
  5
B17
330
1F
100
AcDbEntity
  8
0
100
AcDbCircle
 10
1326.769001759342
 20
-18.34053703430213
 30
0.0
 40
3.58142515774213
  0
CIRCLE
  5
B18
330
1F
100
AcDbEntity
  8
0
100
AcDbCircle
 10
1336.769001759342
 20
-18.3405370343018
 30
0.0
 40
3.58142515774213
  0
CIRCLE
  5
B19
330
1F
100
AcDbEntity
  8
0
100
AcDbCircle
 10
1346.769001759342
 20
-18.34053703430148
 30
0.0
 40
3.58142515774213
  0
CIRCLE
  5
B1A
330
1F
100
AcDbEntity
  8
0
100
AcDbCircle
 10
1356.769001759342
 20
-18.34053703430113
 30
0.0
 40
3.58142515774213
  0
CIRCLE
  5
B1B
330
1F
100
AcDbEntity
  8
0
100
AcDbCircle
 10
1352.783222741031
 20
0.929053556600067
 30
0.0
 40
3.58142515774213
  0
CIRCLE
  5
B1C
330
1F
100
AcDbEntity
  8
0
100
AcDbCircle
 10
1326.769001759342
 20
-8.008029280466089
 30
0.0
 40
3.569370879139306
  0
CIRCLE
  5
B1D
330
1F
100
AcDbEntity
  8
0
100
AcDbCircle
 10
1326.777400178932
 20
0.9290535565992144
 30
0.0
 40
3.58142515774213
  0
CIRCLE
  5
B1E
330
1F
100
AcDbEntity
  8
0
100
AcDbCircle
 10
1363.445213961065
 20
-22.66568210101701
 30
0.0
 40
1.486408352995008
  0
CIRCLE
  5
B1F
330
1F
100
AcDbEntity
  8
0
100
AcDbCircle
 10
1363.472740434875
 20
-14.3089509647031
 30
0.0
 40
1.486408352995008
  0
ARC
  5
C81
330
1F
100
AcDbEntity
  8
0
100
AcDbCircle
 10
1333.932269124844
 20
-61.3558712395369
 30
0.0
 40
0.9189467264058112
100
AcDbArc
 50
271.4430195980349
 51
358.5569804019879
  0
ARC
  5
C82
330
1F
100
AcDbEntity
  8
0
100
AcDbCircle
 10
1365.199468093335
 20
-31.23012953190735
 30
0.0
 40
0.955639696887937
100
AcDbArc
 50
359.497864175208
 51
90.50213582478916
  0
ARC
  5
C83
330
1F
100
AcDbEntity
  8
0
100
AcDbCircle
 10
1365.47183896314
 20
-43.59129440666731
 30
0.0
 40
0.683269001547442
100
AcDbArc
 50
270.5952547199644
 51
359.404745280012
  0
LWPOLYLINE
  5
C84
330
1F
100
AcDbEntity
  8
0
100
AcDbPolyline
 90
        4
 70
     0
 43
0.0
 10
1358.569676325078
 20
-44.27452653438495
 10
1358.569676325078
 20
-61.27452653438496
 42
-0.4142135623730951
 10
1357.569676325077
 20
-62.27452653438496
 10
1352.446723947423
 20
-62.27452653438497
  0
LWPOLYLINE
  5
C85
330
1F
100
AcDbEntity
  8
0
100
AcDbPolyline
 90
        4
 70
     0
 43
0.0
 10
1349.65058991938
 20
-62.27452653438497
 10
1346.850924419693
 20
-62.27452653438497
 42
-0.4142135623730951
 10
1345.850924419693
 20
-61.27452653438496
 10
1345.850924419693
 20
-44.27452653438495
  0
LINE
  5
C86
330
1F
100
AcDbEntity
  8
0
100
AcDbLine
 10
1366.155071090858
 20
-31.23850457783175
 30
0.0
 11
1366.155071090858
 21
-43.59839286636508
 31
0.0
  0
LINE
  5
C87
330
1F
100
AcDbEntity
  8
0
100
AcDbLine
 10
1365.478937422838
 20
-44.27452653438495
 30
0.0
 11
1358.569676325078
 21
-44.27452653438495
 31
0.0
  0
LINE
  5
C88
330
1F
100
AcDbEntity
  8
0
100
AcDbLine
 10
1345.850924419693
 20
-44.27452653438495
 30
0.0
 11
1334.850924419693
 21
-44.27452653438495
 31
0.0
  0
LINE
  5
C89
330
1F
100
AcDbEntity
  8
0
100
AcDbLine
 10
1334.850924419693
 20
-44.27452653438495
 30
0.0
 11
1334.850924419693
 21
-61.37901287341559
 31
0.0
  0
LINE
  5
C8A
330
1F
100
AcDbEntity
  8
0
100
AcDbLine
 10
1333.955410758723
 20
-62.2745265343855
 30
0.0
 11
1318.900924419693
 21
-62.27452653438501
 31
0.0
  0
LINE
  5
C8B
330
1F
100
AcDbEntity
  8
0
100
AcDbLine
 10
1349.65058991938
 20
-62.27452653438497
 30
0.0
 11
1352.446723947423
 21
-62.27452653438497
 31
0.0
  0
ARC
  5
C8C
330
1F
100
AcDbEntity
  8
0
100
AcDbCircle
 10
1331.609524363507
 20
-29.24324143828699
 30
0.0
 40
2.0
100
AcDbArc
 50
211.040413468009
 51
328.959586531991
  0
ARC
  5
C8D
330
1F
100
AcDbEntity
  8
0
100
AcDbCircle
 10
1337.609524363507
 20
-29.24324143828699
 30
0.0
 40
2.0
100
AcDbArc
 50
211.040413468009
 51
328.959586531991
  0
ARC
  5
C8E
330
1F
100
AcDbEntity
  8
0
100
AcDbCircle
 10
1343.609524363507
 20
-29.24324143828699
 30
0.0
 40
2.0
100
AcDbArc
 50
211.040413468009
 51
328.959586531991
  0
ARC
  5
C8F
330
1F
100
AcDbEntity
  8
0
100
AcDbCircle
 10
1349.609524363507
 20
-29.24324143828699
 30
0.0
 40
2.0
100
AcDbArc
 50
211.040413468009
 51
328.959586531991
  0
ARC
  5
C90
330
1F
100
AcDbEntity
  8
0
100
AcDbCircle
 10
1355.609524363507
 20
-29.24324143828699
 30
0.0
 40
2.0
100
AcDbArc
 50
211.040413468009
 51
328.959586531991
  0
LINE
  5
C91
330
1F
100
AcDbEntity
  8
0
100
AcDbLine
 10
1317.850924419692
 20
-30.27452653438496
 30
0.0
 11
1329.89591675073
 21
-30.27452653438493
 31
0.0
  0
LINE
  5
C92
330
1F
100
AcDbEntity
  8
0
100
AcDbLine
 10
1333.323131976283
 20
-30.27452653438493
 30
0.0
 11
1335.89591675073
 21
-30.27452653438493
 31
0.0
  0
LINE
  5
C93
330
1F
100
AcDbEntity
  8
0
100
AcDbLine
 10
1339.323131976283
 20
-30.27452653438493
 30
0.0
 11
1341.89591675073
 21
-30.27452653438493
 31
0.0
  0
LINE
  5
C94
330
1F
100
AcDbEntity
  8
0
100
AcDbLine
 10
1345.323131976283
 20
-30.27452653438493
 30
0.0
 11
1347.89591675073
 21
-30.27452653438493
 31
0.0
  0
LINE
  5
C95
330
1F
100
AcDbEntity
  8
0
100
AcDbLine
 10
1351.323131976283
 20
-30.27452653438493
 30
0.0
 11
1353.89591675073
 21
-30.27452653438493
 31
0.0
  0
LINE
  5
C96
330
1F
100
AcDbEntity
  8
0
100
AcDbLine
 10
1357.323131976283
 20
-30.27452653438493
 30
0.0
 11
1365.191093047411
 21
-30.27452653438493
 31
0.0
  0
ARC
  5
C97
330
1F
100
AcDbEntity
  8
0
100
AcDbCircle
 10
1301.769579714541
 20
-61.3558712395369
 30
0.0
 40
0.9189467264058112
100
AcDbArc
 50
181.4430195980125
 51
268.5569804019651
  0
ARC
  5
C98
330
1F
100
AcDbEntity
  8
0
100
AcDbCircle
 10
1270.50238074605
 20
-31.23012953190735
 30
0.0
 40
0.955639696887937
100
AcDbArc
 50
89.49786417521085
 51
180.502135824792
  0
ARC
  5
C99
330
1F
100
AcDbEntity
  8
0
100
AcDbCircle
 10
1270.230009876245
 20
-43.59129440666731
 30
0.0
 40
0.683269001547442
100
AcDbArc
 50
180.5952547199876
 51
269.4047452800226
  0
LWPOLYLINE
  5
C9A
330
1F
100
AcDbEntity
  8
0
100
AcDbPolyline
 90
        4
 70
     0
 43
0.0
 10
1277.132172514308
 20
-44.27452653438495
 10
1277.132172514308
 20
-61.27452653438496
 42
0.4142135623730951
 10
1278.132172514308
 20
-62.27452653438496
 10
1283.255124891963
 20
-62.27452653438497
  0
LWPOLYLINE
  5
C9B
330
1F
100
AcDbEntity
  8
0
100
AcDbPolyline
 90
        4
 70
     0
 43
0.0
 10
1286.051258920005
 20
-62.27452653438497
 10
1288.850924419693
 20
-62.27452653438497
 42
0.4142135623730951
 10
1289.850924419693
 20
-61.27452653438496
 10
1289.850924419693
 20
-44.27452653438495
  0
LINE
  5
C9C
330
1F
100
AcDbEntity
  8
0
100
AcDbLine
 10
1269.546777748528
 20
-31.23850457783175
 30
0.0
 11
1269.546777748528
 21
-43.59839286636508
 31
0.0
  0
LINE
  5
C9D
330
1F
100
AcDbEntity
  8
0
100
AcDbLine
 10
1270.222911416548
 20
-44.27452653438495
 30
0.0
 11
1277.132172514308
 21
-44.27452653438495
 31
0.0
  0
LINE
  5
C9E
330
1F
100
AcDbEntity
  8
0
100
AcDbLine
 10
1289.850924419693
 20
-44.27452653438495
 30
0.0
 11
1300.850924419693
 21
-44.27452653438495
 31
0.0
  0
LINE
  5
C9F
330
1F
100
AcDbEntity
  8
0
100
AcDbLine
 10
1300.850924419693
 20
-44.27452653438495
 30
0.0
 11
1300.850924419693
 21
-61.37901287341559
 31
0.0
  0
LINE
  5
CA0
330
1F
100
AcDbEntity
  8
0
100
AcDbLine
 10
1301.746438080662
 20
-62.2745265343855
 30
0.0
 11
1316.800924419693
 21
-62.27452653438499
 31
0.0
  0
LINE
  5
CA1
330
1F
100
AcDbEntity
  8
0
100
AcDbLine
 10
1286.051258920005
 20
-62.27452653438497
 30
0.0
 11
1283.255124891963
 21
-62.27452653438497
 31
0.0
  0
ARC
  5
CA2
330
1F
100
AcDbEntity
  8
0
100
AcDbCircle
 10
1304.092324475879
 20
-29.24324143828699
 30
0.0
 40
2.0
100
AcDbArc
 50
211.040413468012
 51
328.959586531988
  0
ARC
  5
CA3
330
1F
100
AcDbEntity
  8
0
100
AcDbCircle
 10
1298.092324475879
 20
-29.24324143828699
 30
0.0
 40
2.0
100
AcDbArc
 50
211.040413468012
 51
328.959586531988
  0
ARC
  5
CA4
330
1F
100
AcDbEntity
  8
0
100
AcDbCircle
 10
1292.092324475879
 20
-29.24324143828699
 30
0.0
 40
2.0
100
AcDbArc
 50
211.040413468012
 51
328.9595865319877
  0
ARC
  5
CA5
330
1F
100
AcDbEntity
  8
0
100
AcDbCircle
 10
1286.092324475879
 20
-29.24324143828699
 30
0.0
 40
2.0
100
AcDbArc
 50
211.0404134680123
 51
328.9595865319877
  0
ARC
  5
CA6
330
1F
100
AcDbEntity
  8
0
100
AcDbCircle
 10
1280.092324475879
 20
-29.24324143828699
 30
0.0
 40
2.0
100
AcDbArc
 50
211.0404134680123
 51
328.9595865319877
  0
LINE
  5
CA7
330
1F
100
AcDbEntity
  8
0
100
AcDbLine
 10
1317.850924419692
 20
-30.27452653438496
 30
0.0
 11
1305.805932088655
 21
-30.27452653438493
 31
0.0
  0
LINE
  5
CA8
330
1F
100
AcDbEntity
  8
0
100
AcDbLine
 10
1302.378716863102
 20
-30.27452653438493
 30
0.0
 11
1299.805932088655
 21
-30.27452653438493
 31
0.0
  0
LINE
  5
CA9
330
1F
100
AcDbEntity
  8
0
100
AcDbLine
 10
1296.378716863102
 20
-30.27452653438493
 30
0.0
 11
1293.805932088655
 21
-30.27452653438493
 31
0.0
  0
LINE
  5
CAA
330
1F
100
AcDbEntity
  8
0
100
AcDbLine
 10
1290.378716863102
 20
-30.27452653438493
 30
0.0
 11
1287.805932088655
 21
-30.27452653438493
 31
0.0
  0
LINE
  5
CAB
330
1F
100
AcDbEntity
  8
0
100
AcDbLine
 10
1284.378716863102
 20
-30.27452653438493
 30
0.0
 11
1281.805932088655
 21
-30.27452653438493
 31
0.0
  0
LINE
  5
CAC
330
1F
100
AcDbEntity
  8
0
100
AcDbLine
 10
1278.378716863102
 20
-30.27452653438493
 30
0.0
 11
1270.510755791974
 21
-30.27452653438493
 31
0.0
  0
CIRCLE
  5
CAD
330
1F
100
AcDbEntity
  8
0
100
AcDbCircle
 10
1352.356746981792
 20
-47.75095647593445
 30
0.0
 40
3.569370879139306
  0
CIRCLE
  5
CAE
330
1F
100
AcDbEntity
  8
0
100
AcDbCircle
 10
1326.350924419693
 20
-37.41844872209842
 30
0.0
 40
3.58142515774213
  0
CIRCLE
  5
CAF
330
1F
100
AcDbEntity
  8
0
100
AcDbCircle
 10
1336.350924419693
 20
-37.41844872209842
 30
0.0
 40
3.58142515774213
  0
CIRCLE
  5
CB0
330
1F
100
AcDbEntity
  8
0
100
AcDbCircle
 10
1346.350924419693
 20
-37.41844872209842
 30
0.0
 40
3.58142515774213
  0
CIRCLE
  5
CB1
330
1F
100
AcDbEntity
  8
0
100
AcDbCircle
 10
1356.350924419692
 20
-37.41844872209842
 30
0.0
 40
3.58142515774213
  0
CIRCLE
  5
CB2
330
1F
100
AcDbEntity
  8
0
100
AcDbCircle
 10
1352.365145401382
 20
-56.68803931299976
 30
0.0
 40
3.58142515774213
  0
CIRCLE
  5
CB3
330
1F
100
AcDbEntity
  8
0
100
AcDbCircle
 10
1326.350924419693
 20
-47.75095647593445
 30
0.0
 40
3.569370879139306
  0
CIRCLE
  5
CB4
330
1F
100
AcDbEntity
  8
0
100
AcDbCircle
 10
1326.359322839283
 20
-56.68803931299976
 30
0.0
 40
3.58142515774213
  0
CIRCLE
  5
CB5
330
1F
100
AcDbEntity
  8
0
100
AcDbCircle
 10
1363.027136621415
 20
-33.09330365538233
 30
0.0
 40
1.486408352995008
  0
CIRCLE
  5
CB6
330
1F
100
AcDbEntity
  8
0
100
AcDbCircle
 10
1363.054663095226
 20
-41.45003479169623
 30
0.0
 40
1.486408352995008
  0
CIRCLE
  5
CB7
330
1F
100
AcDbEntity
  8
0
100
AcDbCircle
 10
1283.345101857593
 20
-47.75095647593445
 30
0.0
 40
3.569370879139306
  0
CIRCLE
  5
CB8
330
1F
100
AcDbEntity
  8
0
100
AcDbCircle
 10
1309.350924419693
 20
-37.41844872209842
 30
0.0
 40
3.58142515774213
  0
CIRCLE
  5
CB9
330
1F
100
AcDbEntity
  8
0
100
AcDbCircle
 10
1299.350924419693
 20
-37.41844872209842
 30
0.0
 40
3.58142515774213
  0
CIRCLE
  5
CBA
330
1F
100
AcDbEntity
  8
0
100
AcDbCircle
 10
1289.350924419693
 20
-37.41844872209842
 30
0.0
 40
3.58142515774213
  0
CIRCLE
  5
CBB
330
1F
100
AcDbEntity
  8
0
100
AcDbCircle
 10
1279.350924419693
 20
-37.41844872209842
 30
0.0
 40
3.58142515774213
  0
CIRCLE
  5
CBC
330
1F
100
AcDbEntity
  8
0
100
AcDbCircle
 10
1283.336703438003
 20
-56.68803931299976
 30
0.0
 40
3.58142515774213
  0
CIRCLE
  5
CBD
330
1F
100
AcDbEntity
  8
0
100
AcDbCircle
 10
1309.350924419693
 20
-47.75095647593445
 30
0.0
 40
3.569370879139306
  0
CIRCLE
  5
CBE
330
1F
100
AcDbEntity
  8
0
100
AcDbCircle
 10
1309.342526000103
 20
-56.68803931299976
 30
0.0
 40
3.58142515774213
  0
CIRCLE
  5
CBF
330
1F
100
AcDbEntity
  8
0
100
AcDbCircle
 10
1272.67471221797
 20
-33.09330365538233
 30
0.0
 40
1.486408352995008
  0
CIRCLE
  5
CC0
330
1F
100
AcDbEntity
  8
0
100
AcDbCircle
 10
1272.64718574416
 20
-41.45003479169623
 30
0.0
 40
1.486408352995008
  0
LINE
  5
D68
330
1F
100
AcDbEntity
  8
0
100
AcDbLine
 10
1317.200924419692
 20
-61.87452653438498
 30
0.0
 11
1317.200924419692
 21
-44.27452653438495
 31
0.0
  0
LINE
  5
D69
330
1F
100
AcDbEntity
  8
0
100
AcDbLine
 10
1317.200924419692
 20
-44.27452653438495
 30
0.0
 11
1318.500924419693
 21
-44.27452653438495
 31
0.0
  0
LINE
  5
D6A
330
1F
100
AcDbEntity
  8
0
100
AcDbLine
 10
1318.500924419693
 20
-44.27452653438495
 30
0.0
 11
1318.500924419693
 21
-61.87452653438498
 31
0.0
  0
LINE
  5
D6B
330
1F
100
AcDbEntity
  8
0
100
AcDbLine
 10
1318.919001759343
 20
-25.08445922201587
 30
0.0
 11
1318.919001759342
 21
-11.48445922201585
 31
0.0
  0
LINE
  5
D6C
330
1F
100
AcDbEntity
  8
0
100
AcDbLine
 10
1318.919001759342
 20
-11.48445922201585
 30
0.0
 11
1317.619001759342
 21
-11.4844592220159
 31
0.0
  0
LINE
  5
D6D
330
1F
100
AcDbEntity
  8
0
100
AcDbLine
 10
1317.619001759342
 20
-11.4844592220159
 30
0.0
 11
1317.619001759342
 21
-25.0844592220159
 31
0.0
  0
ARC
  5
D71
330
1F
100
AcDbEntity
  8
0
100
AcDbCircle
 10
1317.194432822526
 20
-25.05989028519913
 30
0.0
 40
0.4252792197674761
100
AcDbArc
 50
273.3118961294039
 51
356.6881038705945
  0
ARC
  5
D72
330
1F
100
AcDbEntity
  8
0
100
AcDbCircle
 10
1319.298473246426
 20
-25.10498773493273
 30
0.0
 40
0.3800263534964024
100
AcDbArc
 50
176.9034517782644
 51
273.0965482217242
  0
ARC
  5
D75
330
1F
100
AcDbEntity
  8
0
100
AcDbCircle
 10
1316.77804369031
 20
-61.8516458050022
 30
0.0
 40
0.4234992787012656
100
AcDbArc
 50
273.097072221737
 51
356.9029277782794
  0
ARC
  5
D76
330
1F
100
AcDbEntity
  8
0
100
AcDbCircle
 10
1318.923422523694
 20
-61.85202843038366
 30
0.0
 40
0.4230966941113682
100
AcDbArc
 50
183.0481322014221
 51
266.9518677986573
  0
MTEXT
  5
E1C
330
1F
100
AcDbEntity
  8
0
100
AcDbMText
 10
1336.991801878235
 20
-66.59547910074621
 30
0.0
 40
2.5
 41
68.98070534061935
 46
0.0
 71
     1
 72
     5
  1
www.maclab.sk
 73
     1
 44
1.0
  0
ENDSEC
  0
SECTION
  2
OBJECTS
  0
DICTIONARY
  5
C
330
0
100
AcDbDictionary
281
     1
  3
ACAD_COLOR
350
6B
  3
ACAD_GROUP
350
D
  3
ACAD_LAYOUT
350
1A
  3
ACAD_MATERIAL
350
6A
  3
ACAD_MLINESTYLE
350
17
  3
ACAD_PLOTSETTINGS
350
19
  3
ACAD_PLOTSTYLENAME
350
E
  3
ACAD_TABLESTYLE
350
7E
  3
ACAD_VISUALSTYLE
350
EF
  3
AcDbVariableDictionary
350
5E
  0
DICTIONARY
  5
D7F
330
2
100
AcDbDictionary
280
     1
281
     1
  3
ACAD_LAYERSTATES
360
D80
  0
DICTIONARY
  5
145
330
1F
100
AcDbDictionary
280
     1
281
     1
  3
ACAD_SORTENTS
360
146
  0
DICTIONARY
  5
6B
102
{ACAD_REACTORS
330
C
102
}
330
C
100
AcDbDictionary
281
     1
  0
DICTIONARY
  5
D
102
{ACAD_REACTORS
330
C
102
}
330
C
100
AcDbDictionary
281
     1
  0
DICTIONARY
  5
1A
102
{ACAD_REACTORS
330
C
102
}
330
C
100
AcDbDictionary
281
     1
  3
Layout2
350
D7
  3
Model
350
22
  0
DICTIONARY
  5
6A
102
{ACAD_REACTORS
330
C
102
}
330
C
100
AcDbDictionary
281
     1
  3
ByBlock
350
ED
  3
ByLayer
350
EC
  3
Global
350
EE
  0
DICTIONARY
  5
17
102
{ACAD_REACTORS
330
C
102
}
330
C
100
AcDbDictionary
281
     1
  3
Standard
350
18
  0
DICTIONARY
  5
19
102
{ACAD_REACTORS
330
C
102
}
330
C
100
AcDbDictionary
281
     1
  0
ACDBDICTIONARYWDFLT
  5
E
102
{ACAD_REACTORS
330
C
102
}
330
C
100
AcDbDictionary
281
     1
  3
Normal
350
F
100
AcDbDictionaryWithDefault
340
F
  0
DICTIONARY
  5
7E
102
{ACAD_REACTORS
330
C
102
}
330
C
100
AcDbDictionary
281
     1
  3
Standard
350
7F
  0
DICTIONARY
  5
EF
102
{ACAD_REACTORS
330
C
102
}
330
C
100
AcDbDictionary
281
     1
  3
2dWireframe
350
F5
  3
3D Hidden
350
F7
  3
3dWireframe
350
F6
  3
Basic
350
F4
  3
Brighten
350
FB
  3
ColorChange
350
FF
  3
Conceptual
350
F8
  3
Dim
350
FA
  3
Facepattern
350
FE
  3
Flat
350
F0
  3
FlatWithEdges
350
F1
  3
Gouraud
350
F2
  3
GouraudWithEdges
350
F3
  3
Linepattern
350
FD
  3
Realistic
350
F9
  3
Thicken
350
FC
  0
DICTIONARY
  5
5E
102
{ACAD_REACTORS
330
C
102
}
330
C
100
AcDbDictionary
281
     1
  3
CTABLESTYLE
350
84
  3
DIMASSOC
350
5F
  3
HIDETEXT
350
63
  0
DICTIONARY
  5
D80
102
{ACAD_REACTORS
330
D7F
102
}
330
D7F
100
AcDbDictionary
281
     1
  0
SORTENTSTABLE
  5
146
102
{ACAD_REACTORS
330
145
102
}
330
145
100
AcDbSortentsTable
330
1F
331
C8A
  5
C8A
331
AC3
  5
AC3
331
D69
  5
D6A
331
C92
  5
C92
331
C9A
  5
C9A
331
A8C
  5
A8C
331
CA2
  5
CA2
331
A94
  5
A94
331
CAA
  5
CAA
331
A9C
  5
A9C
331
CB2
  5
CB2
331
AA4
  5
AA4
331
B1B
  5
B1B
331
CBA
  5
CBA
331
C83
  5
C83
331
A6D
  5
A6E
331
D6A
  5
D6B
331
C8B
  5
C8B
331
A75
  5
A6C
331
C93
  5
C93
331
C9B
  5
C9B
331
A8D
  5
A8D
331
ADC
  5
ADC
331
CA3
  5
CA3
331
A95
  5
A95
331
A9D
  5
A9D
331
CAB
  5
CAB
331
AA5
  5
AA5
331
CB3
  5
CB3
331
A66
  5
A66
331
B1C
  5
B1C
331
CBB
  5
CBB
331
C84
  5
C84
331
A6E
  5
A70
331
C8C
  5
C8C
331
A76
  5
A76
331
D6B
  5
D6C
331
C94
  5
C94
331
C9C
  5
C9C
331
A8E
  5
A8E
331
CA4
  5
CA4
331
A96
  5
A96
331
AE5
  5
AE5
331
B0D
  5
B0D
331
A9E
  5
A9E
331
CAC
  5
CAC
331
B15
  5
B15
331
AA6
  5
AA6
331
CB4
  5
CB4
331
B1D
  5
B1D
331
CBC
  5
CBC
331
C85
  5
C85
331
C8D
  5
C8D
331
D6C
  5
D6D
331
C95
  5
C95
331
C9D
  5
C9D
331
A8F
  5
A8F
331
CA5
  5
CA5
331
A97
  5
A97
331
AE6
  5
AE6
331
CAD
  5
CAD
331
A9F
  5
A9F
331
B16
  5
B16
331
AA7
  5
AA7
331
CB5
  5
CB5
331
B1E
  5
B1E
331
A68
  5
A68
331
CBD
  5
CBD
331
C86
  5
C86
331
A70
  5
A71
331
C8E
  5
C8E
331
D6D
  5
D6E
331
C96
  5
C96
331
C9E
  5
C9E
331
A90
  5
A90
331
CA6
  5
CA6
331
A98
  5
A98
331
CAE
  5
CAE
331
AA0
  5
AA0
331
B17
  5
B17
331
CB6
  5
CB6
331
AA8
  5
AA8
331
B1F
  5
B1F
331
AB0
  5
AB0
331
CBE
  5
CBE
331
C87
  5
C87
331
A71
  5
A72
331
C8F
  5
C8F
331
C97
  5
C97
331
C9F
  5
C9F
331
A91
  5
A91
331
CA7
  5
CA7
331
A99
  5
A99
331
CAF
  5
CAF
331
AA1
  5
AA1
331
CB7
  5
CB7
331
B18
  5
B18
331
AA9
  5
AA9
331
CBF
  5
CBF
331
A6A
  5
A6A
331
C88
  5
C88
331
A72
  5
A73
331
AC1
  5
AC1
331
C90
  5
C90
331
A82
  5
A82
331
C98
  5
C98
331
CA0
  5
CA0
331
A92
  5
A92
331
CA8
  5
CA8
331
A9A
  5
A9A
331
CB0
  5
CB0
331
AA2
  5
AA2
331
B19
  5
B19
331
AAA
  5
AAA
331
CB8
  5
CB8
331
CC0
  5
CC0
331
C81
  5
C81
331
A6B
  5
A6B
331
C89
  5
C89
331
AC2
  5
AC2
331
D68
  5
D69
331
C91
  5
C91
331
C99
  5
C99
331
A8B
  5
A8B
331
CA1
  5
CA1
331
A93
  5
A93
331
CA9
  5
CA9
331
A9B
  5
A9B
331
CB1
  5
CB1
331
AA3
  5
AA3
331
B1A
  5
B1A
331
CB9
  5
CB9
331
C82
  5
C82
331
AB3
  5
AB3
  0
LAYOUT
  5
D7
102
{ACAD_REACTORS
330
1A
102
}
330
1A
100
AcDbPlotSettings
  1

  2
C:\Documents and Settings\basas\Application Data\Autodesk\AutoCAD 2005\R16.1\enu\plotters\Default Windows System Printer.pc3
  4

  6

 40
0.0
 41
0.0
 42
0.0
 43
0.0
 44
0.0
 45
0.0
 46
0.0
 47
0.0
 48
0.0
 49
0.0
140
0.0
141
0.0
142
1.0
143
1.0
 70
   688
 72
     0
 73
     0
 74
     5
  7

 75
    16
147
1.0
 76
     0
 77
     2
 78
   300
148
0.0
149
0.0
100
AcDbLayout
  1
Layout2
 70
     1
 71
     1
 10
0.0
 20
0.0
 11
12.0
 21
9.0
 12
0.0
 22
0.0
 32
0.0
 14
0.0
 24
0.0
 34
0.0
 15
0.0
 25
0.0
 35
0.0
146
0.0
 13
0.0
 23
0.0
 33
0.0
 16
1.0
 26
0.0
 36
0.0
 17
0.0
 27
1.0
 37
0.0
 76
     0
330
D6
  0
LAYOUT
  5
22
102
{ACAD_REACTORS
330
1A
102
}
330
1A
100
AcDbPlotSettings
  1

  2
none_device
  4
ISO_A4_(210.00_x_297.00_MM)
  6

 40
7.5
 41
20.0
 42
7.5
 43
20.0
 44
210.0
 45
297.0
 46
11.54999923706054
 47
-13.65000009536743
 48
0.0
 49
0.0
140
0.0
141
0.0
142
1.0
143
8.704084754739808
 70
 11952
 72
     1
 73
     0
 74
     0
  7

 75
     0
147
0.1148885871608098
 76
     0
 77
     2
 78
   300
148
0.0
149
0.0
100
AcDbLayout
  1
Model
 70
     1
 71
     0
 10
0.0
 20
0.0
 11
12.0
 21
9.0
 12
0.0
 22
0.0
 32
0.0
 14
0.0
 24
0.0
 34
0.0
 15
0.0
 25
0.0
 35
0.0
146
0.0
 13
0.0
 23
0.0
 33
0.0
 16
1.0
 26
0.0
 36
0.0
 17
0.0
 27
1.0
 37
0.0
 76
     0
330
1F
331
EA
1001
ACAD_PSEXT
1000
None
1000
None
1000
Not applicable
1000
The layout will not be plotted unless a new plotter configuration name is selected.
1070
     0
  0
MATERIAL
  5
ED
102
{ACAD_REACTORS
330
6A
102
}
330
6A
100
AcDbMaterial
  1
ByBlock
  0
MATERIAL
  5
EC
102
{ACAD_REACTORS
330
6A
102
}
330
6A
100
AcDbMaterial
  1
ByLayer
  0
MATERIAL
  5
EE
102
{ACAD_REACTORS
330
6A
102
}
330
6A
100
AcDbMaterial
  1
Global
  0
MLINESTYLE
  5
18
102
{ACAD_REACTORS
330
17
102
}
330
17
100
AcDbMlineStyle
  2
STANDARD
 70
     0
  3

 62
   256
 51
90.0
 52
90.0
 71
     2
 49
0.5
 62
   256
  6
BYLAYER
 49
-0.5
 62
   256
  6
BYLAYER
  0
ACDBPLACEHOLDER
  5
F
102
{ACAD_REACTORS
330
E
102
}
330
E
  0
TABLESTYLE
  5
7F
102
{ACAD_REACTORS
330
7E
102
}
330
7E
100
AcDbTableStyle
  3
Standard
 70
     0
 71
     0
 40
1.5
 41
1.5
280
     0
281
     0
  7
Standard
140
4.5
170
     2
 62
     0
 63
     7
283
     0
 90
      512
 91
        0
  1

274
    -2
284
     1
 64
     0
275
    -2
285
     1
 65
     0
276
    -2
286
     1
 66
     0
277
    -2
287
     1
 67
     0
278
    -2
288
     1
 68
     0
279
    -2
289
     1
 69
     0
  7
Standard
140
6.0
170
     5
 62
     0
 63
     7
283
     0
 90
      512
 91
        0
  1

274
    -2
284
     1
 64
     0
275
    -2
285
     1
 65
     0
276
    -2
286
     1
 66
     0
277
    -2
287
     1
 67
     0
278
    -2
288
     1
 68
     0
279
    -2
289
     1
 69
     0
  7
Standard
140
4.5
170
     5
 62
     0
 63
     7
283
     0
 90
      512
 91
        0
  1

274
    -2
284
     1
 64
     0
275
    -2
285
     1
 65
     0
276
    -2
286
     1
 66
     0
277
    -2
287
     1
 67
     0
278
    -2
288
     1
 68
     0
279
    -2
289
     1
 69
     0
  0
VISUALSTYLE
  5
F5
102
{ACAD_REACTORS
330
EF
102
}
330
EF
100
AcDbVisualStyle
  2
2dWireframe
 70
     4
 71
     0
 72
     2
 73
     1
 90
        0
 40
-0.6
 41
-30.0
 62
     5
 63
     7
421
 16777215
 74
     1
 91
        4
 64
     7
 65
   257
 75
     1
175
     1
 42
1.0
 92
        0
 66
   257
 43
1.0
 76
     1
 77
     6
 78
     2
 67
     7
 79
     5
170
     0
171
     0
290
     0
174
     0
 93
        1
 44
0.0
173
     0
291
     0
 45
0.0
  0
VISUALSTYLE
  5
F7
102
{ACAD_REACTORS
330
EF
102
}
330
EF
100
AcDbVisualStyle
  2
3D Hidden
 70
     6
 71
     1
 72
     2
 73
     2
 90
        0
 40
-0.6
 41
-30.0
 62
     5
 63
     7
421
 16777215
 74
     2
 91
        2
 64
     7
 65
   257
 75
     2
175
     1
 42
40.0
 92
        0
 66
   257
 43
1.0
 76
     1
 77
     6
 78
     2
 67
     7
 79
     3
170
     0
171
     0
290
     0
174
     0
 93
        1
 44
0.0
173
     0
291
     0
 45
0.0
  0
VISUALSTYLE
  5
F6
102
{ACAD_REACTORS
330
EF
102
}
330
EF
100
AcDbVisualStyle
  2
3dWireframe
 70
     5
 71
     0
 72
     2
 73
     1
 90
        0
 40
-0.6
 41
-30.0
 62
     5
 63
     7
421
 16777215
 74
     1
 91
        4
 64
     7
 65
   257
 75
     1
175
     1
 42
1.0
 92
        0
 66
   257
 43
1.0
 76
     1
 77
     6
 78
     2
 67
     7
 79
     5
170
     0
171
     0
290
     0
174
     0
 93
        1
 44
0.0
173
     0
291
     0
 45
0.0
  0
VISUALSTYLE
  5
F4
102
{ACAD_REACTORS
330
EF
102
}
330
EF
100
AcDbVisualStyle
  2
Basic
 70
     7
 71
     1
 72
     0
 73
     1
 90
        0
 40
-0.6
 41
-30.0
 62
     5
 63
     7
421
 16777215
 74
     0
 91
        4
 64
     7
 65
   257
 75
     1
175
     1
 42
1.0
 92
        8
 66
     7
 43
1.0
 76
     1
 77
     6
 78
     2
 67
     7
 79
     5
170
     0
171
     0
290
     0
174
     0
 93
        1
 44
0.0
173
     0
291
     1
 45
0.0
  0
VISUALSTYLE
  5
FB
102
{ACAD_REACTORS
330
EF
102
}
330
EF
100
AcDbVisualStyle
  2
Brighten
 70
    12
 71
     2
 72
     2
 73
     1
 90
        0
 40
-0.6
 41
-30.0
 62
     5
 63
     7
421
 16777215
 74
     1
 91
        4
 64
     7
 65
   257
 75
     1
175
     1
 42
1.0
 92
        8
 66
     7
 43
1.0
 76
     1
 77
     6
 78
     2
 67
     7
 79
     5
170
     0
171
     0
290
     0
174
     0
 93
        1
 44
50.0
173
     0
291
     1
 45
0.0
  0
VISUALSTYLE
  5
FF
102
{ACAD_REACTORS
330
EF
102
}
330
EF
100
AcDbVisualStyle
  2
ColorChange
 70
    16
 71
     2
 72
     2
 73
     3
 90
        0
 40
-0.6
 41
-30.0
 62
     5
 63
     8
421
  8421504
 74
     1
 91
        4
 64
     7
 65
   257
 75
     1
175
     1
 42
1.0
 92
        8
 66
     8
424
  8421504
 43
1.0
 76
     1
 77
     6
 78
     2
 67
     7
 79
     5
170
     0
171
     0
290
     0
174
     0
 93
        1
 44
0.0
173
     0
291
     1
 45
0.0
  0
VISUALSTYLE
  5
F8
102
{ACAD_REACTORS
330
EF
102
}
330
EF
100
AcDbVisualStyle
  2
Conceptual
 70
     9
 71
     3
 72
     2
 73
     1
 90
        0
 40
-0.6
 41
-30.0
 62
     5
 63
     7
421
 16777215
 74
     2
 91
        2
 64
     7
 65
   257
 75
     1
175
     1
 42
40.0
 92
        8
 66
     7
 43
1.0
 76
     1
 77
     6
 78
     2
 67
     7
 79
     3
170
     0
171
     0
290
     0
174
     0
 93
        1
 44
0.0
173
     0
291
     0
 45
0.0
  0
VISUALSTYLE
  5
FA
102
{ACAD_REACTORS
330
EF
102
}
330
EF
100
AcDbVisualStyle
  2
Dim
 70
    11
 71
     2
 72
     2
 73
     1
 90
        0
 40
-0.6
 41
-30.0
 62
     5
 63
     7
421
 16777215
 74
     1
 91
        4
 64
     7
 65
   257
 75
     1
175
     1
 42
1.0
 92
        8
 66
     7
 43
1.0
 76
     1
 77
     6
 78
     2
 67
     7
 79
     5
170
     0
171
     0
290
     0
174
     0
 93
        1
 44
-50.0
173
     0
291
     1
 45
0.0
  0
VISUALSTYLE
  5
FE
102
{ACAD_REACTORS
330
EF
102
}
330
EF
100
AcDbVisualStyle
  2
Facepattern
 70
    15
 71
     2
 72
     2
 73
     1
 90
        0
 40
-0.6
 41
-30.0
 62
     5
 63
     7
421
 16777215
 74
     1
 91
        4
 64
     7
 65
   257
 75
     1
175
     1
 42
1.0
 92
        8
 66
     7
 43
1.0
 76
     1
 77
     6
 78
     2
 67
     7
 79
     5
170
     0
171
     0
290
     0
174
     0
 93
        1
 44
0.0
173
     0
291
     1
 45
0.0
  0
VISUALSTYLE
  5
F0
102
{ACAD_REACTORS
330
EF
102
}
330
EF
100
AcDbVisualStyle
  2
Flat
 70
     0
 71
     2
 72
     1
 73
     1
 90
        2
 40
-0.6
 41
30.0
 62
     5
 63
     7
421
 16777215
 74
     0
 91
        4
 64
     7
 65
   257
 75
     1
175
     1
 42
1.0
 92
        8
 66
     7
 43
1.0
 76
     1
 77
     6
 78
     2
 67
     7
 79
     5
170
     0
171
     0
290
     0
174
     0
 93
        1
 44
0.0
173
     0
291
     1
 45
0.0
  0
VISUALSTYLE
  5
F1
102
{ACAD_REACTORS
330
EF
102
}
330
EF
100
AcDbVisualStyle
  2
FlatWithEdges
 70
     1
 71
     2
 72
     1
 73
     1
 90
        2
 40
-0.6
 41
30.0
 62
     5
 63
     7
421
 16777215
 74
     1
 91
        4
 64
     7
 65
   257
 75
     1
175
     1
 42
1.0
 92
        0
 66
   257
 43
1.0
 76
     1
 77
     6
 78
     2
 67
     7
 79
     5
170
     0
171
     0
290
     0
174
     0
 93
        1
 44
0.0
173
     0
291
     1
 45
0.0
  0
VISUALSTYLE
  5
F2
102
{ACAD_REACTORS
330
EF
102
}
330
EF
100
AcDbVisualStyle
  2
Gouraud
 70
     2
 71
     2
 72
     2
 73
     1
 90
        2
 40
-0.6
 41
30.0
 62
     5
 63
     7
421
 16777215
 74
     0
 91
        4
 64
     7
 65
   257
 75
     1
175
     1
 42
1.0
 92
        0
 66
     7
 43
1.0
 76
     1
 77
     6
 78
     2
 67
     7
 79
     5
170
     0
171
     0
290
     0
174
     0
 93
        1
 44
0.0
173
     0
291
     1
 45
0.0
  0
VISUALSTYLE
  5
F3
102
{ACAD_REACTORS
330
EF
102
}
330
EF
100
AcDbVisualStyle
  2
GouraudWithEdges
 70
     3
 71
     2
 72
     2
 73
     1
 90
        2
 40
-0.6
 41
30.0
 62
     5
 63
     7
421
 16777215
 74
     1
 91
        4
 64
     7
 65
   257
 75
     1
175
     1
 42
1.0
 92
        0
 66
   257
 43
1.0
 76
     1
 77
     6
 78
     2
 67
     7
 79
     5
170
     0
171
     0
290
     0
174
     0
 93
        1
 44
0.0
173
     0
291
     1
 45
0.0
  0
VISUALSTYLE
  5
FD
102
{ACAD_REACTORS
330
EF
102
}
330
EF
100
AcDbVisualStyle
  2
Linepattern
 70
    14
 71
     2
 72
     2
 73
     1
 90
        0
 40
-0.6
 41
-30.0
 62
     5
 63
     7
421
 16777215
 74
     1
 91
        4
 64
     7
 65
   257
 75
     7
175
     7
 42
1.0
 92
        8
 66
     7
 43
1.0
 76
     1
 77
     6
 78
     2
 67
     7
 79
     5
170
     0
171
     0
290
     0
174
     0
 93
        1
 44
0.0
173
     0
291
     1
 45
0.0
  0
VISUALSTYLE
  5
F9
102
{ACAD_REACTORS
330
EF
102
}
330
EF
100
AcDbVisualStyle
  2
Realistic
 70
     8
 71
     2
 72
     2
 73
     1
 90
        0
 40
-0.6
 41
-30.0
 62
     5
 63
     7
421
 16777215
 74
     1
 91
        0
 64
     7
 65
   257
 75
     1
175
     1
 42
1.0
 92
        8
 66
     8
424
  7895160
 43
1.0
 76
     1
 77
     6
 78
     2
 67
     7
 79
     5
170
     0
171
     0
290
     0
174
     0
 93
       13
 44
0.0
173
     0
291
     0
 45
0.0
  0
VISUALSTYLE
  5
FC
102
{ACAD_REACTORS
330
EF
102
}
330
EF
100
AcDbVisualStyle
  2
Thicken
 70
    13
 71
     2
 72
     2
 73
     1
 90
        0
 40
-0.6
 41
-30.0
 62
     5
 63
     7
421
 16777215
 74
     1
 91
        4
 64
     7
 65
   257
 75
     1
175
     1
 42
1.0
 92
       12
 66
     7
 43
1.0
 76
     1
 77
     6
 78
     2
 67
     7
 79
     5
170
     0
171
     0
290
     0
174
     0
 93
        1
 44
0.0
173
     0
291
     1
 45
0.0
  0
DICTIONARYVAR
  5
84
102
{ACAD_REACTORS
330
5E
102
}
330
5E
100
DictionaryVariables
280
     0
  1
STANDARD
  0
DICTIONARYVAR
  5
5F
102
{ACAD_REACTORS
330
5E
102
}
330
5E
100
DictionaryVariables
280
     0
  1
2
  0
DICTIONARYVAR
  5
63
102
{ACAD_REACTORS
330
5E
102
}
330
5E
100
DictionaryVariables
280
     0
  1
1
  0
ENDSEC
  0
EOF
